999
DXF file: C:\Users\sesa63760\Dev\_Creo\CAD\MCADUE0003167_3D-CAD\drw0001_6.dxf
999
Pro/ENGINEER 2019471 by Parametric Technology Corporation
  0
SECTION
  2
HEADER
  9
$ACADVER
  1
AC1024
  9
$DWGCODEPAGE
  3
ANSI_1252
  9
$EXTMAX
 10
366.5782551997
 20
518.4463894967
 30
0.0
  9
$EXTMIN
 10
0.0
 20
0.0
 30
0.0
  9
$LIMMIN
 10
0.0
 20
0.0
  9
$LIMMAX
 10
366.5782551997
 20
518.4463894967
  9
$VIEWCTR
 10
183.2891275998
 20
259.2231947484
  9
$VIEWSIZE
 40
518.4463894967
  9
$CLAYER
  8
0
  9
$LTSCALE
 40
33.7950239079
  9
$CELTYPE
  6
BYLAYER
  9
$DIMSCALE
 40
1.0
  9
$DIMASZ
 40
4.3640268476
  9
$DIMEXO
 40
1.0
  9
$DIMDLI
 40
23.3492892455
  9
$DIMEXE
 40
1.0
  9
$DIMCEN
 40
5.5300948213
  9
$DIMLFAC
 40
1.0
  9
$DIMBLK
  1
_FILLED
  9
$DIMALT
 70
0
  9
$DIMALTF
 40
0.0393700787
  9
$DIMTXT
 40
6.1096375867
  9
$DIMTOL
 70
1
  9
$DIMLIM
 70
0
  9
$DIMTFAC
 40
1.0
  9
$DIMTP
 40
0.01
  9
$DIMTM
 40
0.01
  9
$DIMGAP
 40
0.625
  9
$DIMDSEP
 70
46
  9
$AUNITS
 70
0
  9
$PDMODE
 70
3
  9
$PDSIZE
 40
0.3125
  9
$HANDSEED
  5
335
  9
$TILEMODE
 70
1
  9
$MEASUREMENT
 70
1
  9
$INSUNITS
 70
4
  0
ENDSEC
  0
SECTION
  2
CLASSES
  0
CLASS
  1
ACDBDICTIONARYWDFLT
  2
AcDbDictionaryWithDefault
  3
AutoCAD 2000
 90
0
 91
1
280
0
281
0
  0
CLASS
  1
ACDBPLACEHOLDER
  2
AcDbPlaceHolder
  3
AutoCAD 2000
 90
0
 91
1
280
0
281
0
  0
CLASS
  1
LAYOUT
  2
AcDbLayout
  3
AutoCAD 2000
 90
0
 91
0
280
0
281
0
  0
ENDSEC
  0
SECTION
  2
TABLES
  0
TABLE
  2
VPORT
  5
8
100
AcDbSymbolTable
 70
2
  0
VPORT
  5
1F4
100
AcDbSymbolTableRecord
100
AcDbViewportTableRecord
  2
*ACTIVE
 70
0
 10
0.0
 20
0.0
 11
1.0
 21
1.0
 12
183.2891275998
 22
259.2231947484
 13
0.0
 23
0.0
 14
1.0
 24
1.0
 15
0.0
 25
0.0
 16
0.0
 26
0.0
 36
1.0
 17
0.0
 27
0.0
 37
0.0
 40
518.4463894967
 41
0.7070707071
 42
50.0
 43
0.0
 44
0.0
 50
0.0
 51
0.0
 71
0
 72
100
 73
1
 74
1
 75
0
 76
0
 77
0
 78
0
  0
ENDTAB
  0
TABLE
  2
LTYPE
  5
5
100
AcDbSymbolTable
 70
6
  0
LTYPE
  5
14
100
AcDbSymbolTableRecord
100
AcDbLinetypeTableRecord
  2
BYBLOCK
 70
0
  3

 72
65
 73
0
 40
0.0
  0
LTYPE
  5
15
100
AcDbSymbolTableRecord
100
AcDbLinetypeTableRecord
  2
BYLAYER
 70
0
  3

 72
65
 73
0
 40
0.0
  0
LTYPE
  5
16
100
AcDbSymbolTableRecord
100
AcDbLinetypeTableRecord
  2
CONTINUOUS
 70
64
  3
Solid line
 72
65
 73
0
 40
0.0
  0
LTYPE
  5
1F5
100
AcDbSymbolTableRecord
100
AcDbLinetypeTableRecord
  2
CENTER
 70
64
  3
____ _ ____ _ ____ _ ____ _ ____ _ ____ _ ____
 72
65
 73
4
 40
0.6
 49
0.375
 74
0
 49
-0.075
 74
0
 49
0.075
 74
0
 49
-0.075
 74
0
  0
LTYPE
  5
1F6
100
AcDbSymbolTableRecord
100
AcDbLinetypeTableRecord
  2
HIDDEN
 70
64
  3
- - - - - - - - - - - - - - - - - - - -
 72
65
 73
2
 40
0.2
 49
0.1
 74
0
 49
-0.1
 74
0
  0
LTYPE
  5
1F7
100
AcDbSymbolTableRecord
100
AcDbLinetypeTableRecord
  2
PHANTOM
 70
64
  3
_____ _ _ _____ _ _ _____ _ _ _____
 72
65
 73
6
 40
0.8
 49
0.45
 74
0
 49
-0.05
 74
0
 49
0.1
 74
0
 49
-0.05
 74
0
 49
0.1
 74
0
 49
-0.05
 74
0
  0
LTYPE
  5
1F8
100
AcDbSymbolTableRecord
100
AcDbLinetypeTableRecord
  2
DOT
 70
64
  3
. . . . . . . . . . . . . . . . . . . .
 72
65
 73
2
 40
0.2
 49
0.1
 74
0
 49
-0.1
 74
0
  0
LTYPE
  5
1F9
100
AcDbSymbolTableRecord
100
AcDbLinetypeTableRecord
  2
DASHED
 70
64
  3
- - - - - - - - - - - - - - - - - - - -
 72
65
 73
2
 40
0.2
 49
0.1
 74
0
 49
-0.1
 74
0
  0
ENDTAB
  0
TABLE
  2
LAYER
  5
2
100
AcDbSymbolTable
 70
36
  0
LAYER
  5
10
100
AcDbSymbolTableRecord
100
AcDbLayerTableRecord
  2
0
 70
0
 62
7
  6
CONTINUOUS
370
-3
390
F
  0
LAYER
  5
1FA
100
AcDbSymbolTableRecord
100
AcDbLayerTableRecord
  2
DEFAULT_1
 70
0
 62
7
  6
CENTER
370
-3
390
F
  0
LAYER
  5
1FB
100
AcDbSymbolTableRecord
100
AcDbLayerTableRecord
  2
DEFAULT_2
 70
0
 62
8
  6
HIDDEN
370
-3
390
F
  0
LAYER
  5
1FC
100
AcDbSymbolTableRecord
100
AcDbLayerTableRecord
  2
DEFAULT_3
 70
0
 62
7
  6
PHANTOM
370
-3
390
F
  0
LAYER
  5
1FD
100
AcDbSymbolTableRecord
100
AcDbLayerTableRecord
  2
00_COMPONENTS
 70
0
 62
7
  6
CONTINUOUS
370
-3
390
F
  0
LAYER
  5
1FE
100
AcDbSymbolTableRecord
100
AcDbLayerTableRecord
  2
01_1_DEFAULT_DATUMS
 70
0
 62
7
  6
CONTINUOUS
370
-3
390
F
  0
LAYER
  5
1FF
100
AcDbSymbolTableRecord
100
AcDbLayerTableRecord
  2
01_PLANES
 70
0
 62
7
  6
CONTINUOUS
370
-3
390
F
  0
LAYER
  5
200
100
AcDbSymbolTableRecord
100
AcDbLayerTableRecord
  2
02_COORD_SYS
 70
0
 62
7
  6
CONTINUOUS
370
-3
390
F
  0
LAYER
  5
201
100
AcDbSymbolTableRecord
100
AcDbLayerTableRecord
  2
03_AXES
 70
0
 62
7
  6
CONTINUOUS
370
-3
390
F
  0
LAYER
  5
202
100
AcDbSymbolTableRecord
100
AcDbLayerTableRecord
  2
04_POINTS
 70
0
 62
7
  6
CONTINUOUS
370
-3
390
F
  0
LAYER
  5
203
100
AcDbSymbolTableRecord
100
AcDbLayerTableRecord
  2
05_CURVES
 70
0
 62
7
  6
CONTINUOUS
370
-3
390
F
  0
LAYER
  5
204
100
AcDbSymbolTableRecord
100
AcDbLayerTableRecord
  2
06_SURFS
 70
0
 62
7
  6
CONTINUOUS
370
-3
390
F
  0
LAYER
  5
205
100
AcDbSymbolTableRecord
100
AcDbLayerTableRecord
  2
07_COSMETICS
 70
0
 62
7
  6
CONTINUOUS
370
-3
390
F
  0
LAYER
  5
206
100
AcDbSymbolTableRecord
100
AcDbLayerTableRecord
  2
10_NOTES
 70
0
 62
7
  6
CONTINUOUS
370
-3
390
F
  0
LAYER
  5
207
100
AcDbSymbolTableRecord
100
AcDbLayerTableRecord
  2
11_NOTES_PUB
 70
0
 62
7
  6
CONTINUOUS
370
-3
390
F
  0
LAYER
  5
208
100
AcDbSymbolTableRecord
100
AcDbLayerTableRecord
  2
13_REF_GTOL
 70
0
 62
7
  6
CONTINUOUS
370
-3
390
F
  0
LAYER
  5
209
100
AcDbSymbolTableRecord
100
AcDbLayerTableRecord
  2
16_MISC
 70
0
 62
7
  6
CONTINUOUS
370
-3
390
F
  0
LAYER
  5
20A
100
AcDbSymbolTableRecord
100
AcDbLayerTableRecord
  2
17_NO_PRINT
 70
0
 62
7
  6
CONTINUOUS
370
-3
390
F
  0
LAYER
  5
20B
100
AcDbSymbolTableRecord
100
AcDbLayerTableRecord
  2
18_DATUM_CAMS_JOINTS
 70
0
 62
7
  6
CONTINUOUS
370
-3
390
F
  0
LAYER
  5
20C
100
AcDbSymbolTableRecord
100
AcDbLayerTableRecord
  2
19_DATUM_FUNCTIONAL
 70
0
 62
7
  6
CONTINUOUS
370
-3
390
F
  0
LAYER
  5
20D
100
AcDbSymbolTableRecord
100
AcDbLayerTableRecord
  2
20_DATUM_KINEMATIC_SCHEME
 70
0
 62
7
  6
CONTINUOUS
370
-3
390
F
  0
ENDTAB
  0
TABLE
  2
STYLE
  5
3
100
AcDbSymbolTable
 70
1
  0
STYLE
  5
11
100
AcDbSymbolTableRecord
100
AcDbTextStyleTableRecord
  2
STANDARD
 70
0
 40
0.0
 41
0.8
 50
0.0
 71
0
 42
0.2
  3
txt
  4

  0
STYLE
  5
20E
100
AcDbSymbolTableRecord
100
AcDbTextStyleTableRecord
  2
TEXTSTYLE_1
 70
0
 40
0.0
 41
0.8
 50
0.0
 71
0
 42
0.2
  3
gdt
  4

  0
ENDTAB
  0
TABLE
  2
VIEW
  5
6
100
AcDbSymbolTable
 70
0
  0
ENDTAB
  0
TABLE
  2
UCS
  5
7
100
AcDbSymbolTable
 70
0
  0
ENDTAB
  0
TABLE
  2
APPID
  5
9
100
AcDbSymbolTable
 70
1
  0
APPID
  5
20F
100
AcDbSymbolTableRecord
100
AcDbRegAppTableRecord
  2
ACAD
 70
0
  0
ENDTAB
  0
TABLE
  2
BLOCK_RECORD
  5
1
100
AcDbSymbolTable
 70
0
  0
BLOCK_RECORD
  5
210
100
AcDbSymbolTableRecord
100
AcDbBlockTableRecord
  2
*Model_Space
  0
BLOCK_RECORD
  5
211
100
AcDbSymbolTableRecord
100
AcDbBlockTableRecord
  2
*Paper_Space
  0
BLOCK_RECORD
  5
212
100
AcDbSymbolTableRecord
100
AcDbBlockTableRecord
  2
_FILLED
  0
ENDTAB
  0
TABLE
  2
DIMSTYLE
  5
A
100
AcDbSymbolTable
 70
1
100
AcDbDimStyleTable
 71
0
  0
DIMSTYLE
105
213
100
AcDbSymbolTableRecord
100
AcDbDimStyleTableRecord
  2
STANDARD
 70
0
  3

  4

 40
1.0
 41
4.3640268476
 42
1.0
 43
0.38
 44
1.0
 45
0.0
 46
0.0
 47
0.01
 48
0.01
140
6.1096375867
141
0.09
142
0.0
143
25.4
144
1.0
145
0.0
146
1.0
147
0.625
 71
1
 72
0
 73
0
 74
0
 75
0
 76
0
 77
1
 78
8
 79
2
170
0
171
1
172
0
173
0
174
0
175
0
176
0
177
0
178
0
270
2
179
2
271
2
272
2
273
2
274
2
275
0
280
0
281
0
282
0
283
1
284
8
285
0
286
0
287
3
288
0
340
11
278
46
341
212
342
212
343
212
344
212
  0
ENDTAB
  0
ENDSEC
  0
SECTION
  2
BLOCKS
  0
BLOCK
  5
20
100
AcDbEntity
  8
0
100
AcDbBlockBegin
  2
*Model_Space
 70
0
 10
0.0
 20
0.0
 30
0.0
  3
*Model_Space
  1

  0
ENDBLK
  5
21
100
AcDbEntity
  8
0
100
AcDbBlockEnd
  0
BLOCK
  5
1C
100
AcDbEntity
  8
0
100
AcDbBlockBegin
  2
*Paper_Space
 70
0
 10
0.0
 20
0.0
 30
0.0
  3
*Paper_Space
  1

  0
ENDBLK
  5
1D
100
AcDbEntity
  8
0
100
AcDbBlockEnd
  0
BLOCK
  5
214
100
AcDbEntity
  8
0
100
AcDbBlockBegin
  2
_FILLED
 70
64
 10
0.0
 20
0.0
  3
_FILLED
  1

  0
SOLID
  5
215
100
AcDbEntity
  8
0
  6
BYBLOCK
 62
0
100
AcDbTrace
 10
0.0
 20
0.0
 11
-1.0
 21
0.25
 12
-1.0
 22
-0.25
 13
-1.0
 23
-0.25
  0
ENDBLK
  5
216
100
AcDbEntity
  8
0
  6
BYBLOCK
 62
0
100
AcDbBlockEnd
  0
ENDSEC
  0
SECTION
  2
ENTITIES
  0
LINE
  5
217
100
AcDbEntity
  8
0
100
AcDbLine
 62
7
  6
CONTINUOUS
 10
41.4619941206
 20
209.2231947484
 11
41.4619941206
 21
309.2231947484
  0
LINE
  5
218
100
AcDbEntity
  8
0
100
AcDbLine
 62
7
  6
CONTINUOUS
 10
41.4720320702
 20
309.2231947484
 11
41.4720320702
 21
269.2231947484
  0
LINE
  5
219
100
AcDbEntity
  8
0
100
AcDbLine
 62
7
  6
CONTINUOUS
 10
41.4720320702
 20
249.2231947484
 11
41.4720320702
 21
209.2231947484
  0
LINE
  5
21A
100
AcDbEntity
  8
0
100
AcDbLine
 62
7
  6
CONTINUOUS
 10
41.9619941206
 20
269.2231947484
 11
41.9619941206
 21
249.2231947484
  0
LINE
  5
21B
100
AcDbEntity
  8
0
100
AcDbLine
 62
7
  6
CONTINUOUS
 10
43.6874114856
 20
209.2231947484
 11
43.6874114856
 21
309.2231947484
  0
LINE
  5
21C
100
AcDbEntity
  8
0
100
AcDbLine
 62
7
  6
CONTINUOUS
 10
43.9619941206
 20
209.2231947484
 11
43.9619941206
 21
309.2231947484
  0
LINE
  5
21D
100
AcDbEntity
  8
0
100
AcDbLine
 62
7
  6
CONTINUOUS
 10
68.9619941206
 20
222.7231947484
 11
68.9619941206
 21
209.2231947484
  0
LINE
  5
21E
100
AcDbEntity
  8
0
100
AcDbLine
 62
7
  6
CONTINUOUS
 10
68.9619941206
 20
295.7231947484
 11
68.9619941206
 21
309.2231947484
  0
LINE
  5
21F
100
AcDbEntity
  8
0
100
AcDbLine
 62
7
  6
CONTINUOUS
 10
76.2119941206
 20
219.4731947484
 11
76.2119941206
 21
222.7231947484
  0
LINE
  5
220
100
AcDbEntity
  8
0
100
AcDbLine
 62
7
  6
CONTINUOUS
 10
76.2119941206
 20
295.7231947484
 11
76.2119941206
 21
298.9731947484
  0
LINE
  5
221
100
AcDbEntity
  8
0
100
AcDbLine
 62
7
  6
CONTINUOUS
 10
85.9619941206
 20
209.2231947484
 11
85.9619941206
 21
222.7231947484
  0
LINE
  5
222
100
AcDbEntity
  8
0
100
AcDbLine
 62
7
  6
CONTINUOUS
 10
85.9619941206
 20
295.7231947484
 11
85.9619941206
 21
309.2231947484
  0
LINE
  5
223
100
AcDbEntity
  8
0
100
AcDbLine
 62
7
  6
CONTINUOUS
 10
101.9619941206
 20
233.7231947484
 11
101.9619941206
 21
238.5135832302
  0
LINE
  5
224
100
AcDbEntity
  8
0
100
AcDbLine
 62
7
  6
CONTINUOUS
 10
101.9619941206
 20
279.919690898
 11
101.9619941206
 21
284.7231947484
  0
LINE
  5
225
100
AcDbEntity
  8
0
100
AcDbLine
 62
7
  6
CONTINUOUS
 10
103.9619941206
 20
222.7231947484
 11
103.9619941206
 21
209.2231947484
  0
LINE
  5
226
100
AcDbEntity
  8
0
100
AcDbLine
 62
7
  6
CONTINUOUS
 10
103.9619941206
 20
295.7231947484
 11
103.9619941206
 21
309.2231947484
  0
LINE
  5
227
100
AcDbEntity
  8
0
100
AcDbLine
 62
7
  6
CONTINUOUS
 10
114.0169941206
 20
213.2231947484
 11
114.0169941206
 21
217.2231947484
  0
LINE
  5
228
100
AcDbEntity
  8
0
100
AcDbLine
 62
7
  6
CONTINUOUS
 10
114.0169941206
 20
301.2231947484
 11
114.0169941206
 21
305.2231947484
  0
LINE
  5
229
100
AcDbEntity
  8
0
100
AcDbLine
 62
7
  6
CONTINUOUS
 10
119.4619941206
 20
306.7231947484
 11
119.4619941206
 21
283.4478239972
  0
LINE
  5
22A
100
AcDbEntity
  8
0
100
AcDbLine
 62
7
  6
CONTINUOUS
 10
119.4619941206
 20
281.6435528272
 11
119.4619941206
 21
276.8121516164
  0
LINE
  5
22B
100
AcDbEntity
  8
0
100
AcDbLine
 62
7
  6
CONTINUOUS
 10
119.4619941206
 20
274.9985569085
 11
119.4619941206
 21
243.4478239972
  0
LINE
  5
22C
100
AcDbEntity
  8
0
100
AcDbLine
 62
7
  6
CONTINUOUS
 10
119.4619941206
 20
241.6435528272
 11
119.4619941206
 21
236.8121516164
  0
LINE
  5
22D
100
AcDbEntity
  8
0
100
AcDbLine
 62
7
  6
CONTINUOUS
 10
119.4619941206
 20
234.9985569085
 11
119.4619941206
 21
211.7231947484
  0
LINE
  5
22E
100
AcDbEntity
  8
0
100
AcDbLine
 62
7
  6
CONTINUOUS
 10
121.4619941206
 20
213.7231947484
 11
121.4619941206
 21
222.7231947484
  0
LINE
  5
22F
100
AcDbEntity
  8
0
100
AcDbLine
 62
7
  6
CONTINUOUS
 10
121.4619941206
 20
233.7239292236
 11
121.4619941206
 21
235.7676849704
  0
LINE
  5
230
100
AcDbEntity
  8
0
100
AcDbLine
 62
7
  6
CONTINUOUS
 10
121.4619941206
 20
242.6787345243
 11
121.4619941206
 21
244.7224602731
  0
LINE
  5
231
100
AcDbEntity
  8
0
100
AcDbLine
 62
7
  6
CONTINUOUS
 10
121.4619941206
 20
273.7239292236
 11
121.4619941206
 21
275.7676849704
  0
LINE
  5
232
100
AcDbEntity
  8
0
100
AcDbLine
 62
7
  6
CONTINUOUS
 10
121.4619941206
 20
282.6787345243
 11
121.4619941206
 21
284.7224602731
  0
LINE
  5
233
100
AcDbEntity
  8
0
100
AcDbLine
 62
7
  6
CONTINUOUS
 10
121.4619941206
 20
295.7231947484
 11
121.4619941206
 21
304.7231947484
  0
LINE
  5
234
100
AcDbEntity
  8
0
100
AcDbLine
 62
7
  6
CONTINUOUS
 10
123.9619941206
 20
212.0231947484
 11
123.9619941206
 21
306.4231947484
  0
LINE
  5
235
100
AcDbEntity
  8
0
100
AcDbLine
 62
7
  6
CONTINUOUS
 10
124.0619941206
 20
235.2231947484
 11
124.0619941206
 21
283.2231947484
  0
LINE
  5
236
100
AcDbEntity
  8
0
100
AcDbLine
 62
7
  6
CONTINUOUS
 10
133.9619941206
 20
238.2231947484
 11
133.9619941206
 21
280.2231947484
  0
LINE
  5
237
100
AcDbEntity
  8
0
100
AcDbLine
 62
7
  6
CONTINUOUS
 10
41.4720320702
 20
209.2231947484
 11
147.9619941206
 21
209.2231947484
  0
LINE
  5
238
100
AcDbEntity
  8
0
100
AcDbLine
 62
7
  6
CONTINUOUS
 10
224.9619941206
 20
209.2231947484
 11
331.4519561711
 21
209.2231947484
  0
LINE
  5
239
100
AcDbEntity
  8
0
100
AcDbLine
 62
7
  6
CONTINUOUS
 10
144.9619941206
 20
309.2231947484
 11
144.9619941206
 21
306.7231947484
  0
LINE
  5
23A
100
AcDbEntity
  8
0
100
AcDbLine
 62
7
  6
CONTINUOUS
 10
144.9619941206
 20
211.7231947484
 11
144.9619941206
 21
209.2231947484
  0
LINE
  5
23B
100
AcDbEntity
  8
0
100
AcDbLine
 62
7
  6
CONTINUOUS
 10
119.4619941206
 20
211.7231947484
 11
103.9619941206
 21
211.7231947484
  0
LINE
  5
23C
100
AcDbEntity
  8
0
100
AcDbLine
 62
7
  6
CONTINUOUS
 10
85.9619941206
 20
211.7231947484
 11
68.9619941206
 21
211.7231947484
  0
LINE
  5
23D
100
AcDbEntity
  8
0
100
AcDbLine
 62
7
  6
CONTINUOUS
 10
123.4254300227
 20
211.7231947484
 11
147.9619941206
 21
211.7231947484
  0
LINE
  5
23E
100
AcDbEntity
  8
0
100
AcDbLine
 62
7
  6
CONTINUOUS
 10
224.9619941206
 20
211.7231947484
 11
249.4985244402
 21
211.7231947484
  0
LINE
  5
23F
100
AcDbEntity
  8
0
100
AcDbLine
 62
7
  6
CONTINUOUS
 10
253.4619941206
 20
211.7231947484
 11
268.9619941206
 21
211.7231947484
  0
LINE
  5
240
100
AcDbEntity
  8
0
100
AcDbLine
 62
7
  6
CONTINUOUS
 10
286.9619941206
 20
211.7231947484
 11
303.9619941206
 21
211.7231947484
  0
LINE
  5
241
100
AcDbEntity
  8
0
100
AcDbLine
 62
7
  6
CONTINUOUS
 10
253.4619941206
 20
212.0231947484
 11
252.539561833
 21
212.0231947484
  0
LINE
  5
242
100
AcDbEntity
  8
0
100
AcDbLine
 62
7
  6
CONTINUOUS
 10
249.4180448923
 20
212.0231947484
 11
248.9619941206
 21
212.0231947484
  0
LINE
  5
243
100
AcDbEntity
  8
0
100
AcDbLine
 62
7
  6
CONTINUOUS
 10
120.3845178303
 20
212.0231947484
 11
119.4619941206
 21
212.0231947484
  0
LINE
  5
244
100
AcDbEntity
  8
0
100
AcDbLine
 62
7
  6
CONTINUOUS
 10
123.5059146374
 20
212.0231947484
 11
123.9619941206
 21
212.0231947484
  0
LINE
  5
245
100
AcDbEntity
  8
0
100
AcDbLine
 62
7
  6
CONTINUOUS
 10
268.9619941206
 20
213.2231947484
 11
258.9069941206
 21
213.2231947484
  0
LINE
  5
246
100
AcDbEntity
  8
0
100
AcDbLine
 62
7
  6
CONTINUOUS
 10
114.0169941206
 20
213.2231947484
 11
103.9619941206
 21
213.2231947484
  0
LINE
  5
247
100
AcDbEntity
  8
0
100
AcDbLine
 62
7
  6
CONTINUOUS
 10
328.9619941206
 20
213.7231947484
 11
303.9619941206
 21
213.7231947484
  0
LINE
  5
248
100
AcDbEntity
  8
0
100
AcDbLine
 62
7
  6
CONTINUOUS
 10
286.9619941206
 20
213.7231947484
 11
268.9619941206
 21
213.7231947484
  0
LINE
  5
249
100
AcDbEntity
  8
0
100
AcDbLine
 62
7
  6
CONTINUOUS
 10
119.4619941206
 20
213.7231947484
 11
114.0169941206
 21
213.7231947484
  0
LINE
  5
24A
100
AcDbEntity
  8
0
100
AcDbLine
 62
7
  6
CONTINUOUS
 10
103.9619941206
 20
213.7231947484
 11
43.9619941206
 21
213.7231947484
  0
LINE
  5
24B
100
AcDbEntity
  8
0
100
AcDbLine
 62
7
  6
CONTINUOUS
 10
286.9619941206
 20
214.2231947484
 11
303.9619941206
 21
214.2231947484
  0
LINE
  5
24C
100
AcDbEntity
  8
0
100
AcDbLine
 62
7
  6
CONTINUOUS
 10
303.9619941206
 20
216.2231947484
 11
286.9619941206
 21
216.2231947484
  0
LINE
  5
24D
100
AcDbEntity
  8
0
100
AcDbLine
 62
7
  6
CONTINUOUS
 10
103.9619941206
 20
217.2231947484
 11
114.0169941206
 21
217.2231947484
  0
LINE
  5
24E
100
AcDbEntity
  8
0
100
AcDbLine
 62
7
  6
CONTINUOUS
 10
258.9069941206
 20
217.2231947484
 11
268.9619941206
 21
217.2231947484
  0
LINE
  5
24F
100
AcDbEntity
  8
0
100
AcDbLine
 62
7
  6
CONTINUOUS
 10
68.9619941206
 20
218.9731947484
 11
75.7119941206
 21
218.9731947484
  0
LINE
  5
250
100
AcDbEntity
  8
0
100
AcDbLine
 62
7
  6
CONTINUOUS
 10
297.2119941206
 20
218.9731947484
 11
303.9619941206
 21
218.9731947484
  0
LINE
  5
251
100
AcDbEntity
  8
0
100
AcDbLine
 62
7
  6
CONTINUOUS
 10
251.4619941206
 20
218.998560602
 11
248.9619941206
 21
218.998560602
  0
LINE
  5
252
100
AcDbEntity
  8
0
100
AcDbLine
 62
7
  6
CONTINUOUS
 10
121.4619941206
 20
218.998560602
 11
123.9619941206
 21
218.998560602
  0
LINE
  5
253
100
AcDbEntity
  8
0
100
AcDbLine
 62
7
  6
CONTINUOUS
 10
123.9619941206
 20
219.198560602
 11
121.4619941206
 21
219.198560602
  0
LINE
  5
254
100
AcDbEntity
  8
0
100
AcDbLine
 62
7
  6
CONTINUOUS
 10
248.9619941206
 20
219.198560602
 11
251.4619941206
 21
219.198560602
  0
LINE
  5
255
100
AcDbEntity
  8
0
100
AcDbLine
 62
7
  6
CONTINUOUS
 10
147.9619941206
 20
209.2231947484
 11
147.9619941206
 21
211.7231947484
  0
LINE
  5
256
100
AcDbEntity
  8
0
100
AcDbLine
 62
7
  6
CONTINUOUS
 10
147.9619941206
 20
306.7231947484
 11
147.9619941206
 21
309.2231947484
  0
LINE
  5
257
100
AcDbEntity
  8
0
100
AcDbLine
 62
7
  6
CONTINUOUS
 10
68.9619941206
 20
222.7231947484
 11
85.9619941206
 21
222.7231947484
  0
LINE
  5
258
100
AcDbEntity
  8
0
100
AcDbLine
 62
7
  6
CONTINUOUS
 10
103.9619941206
 20
222.7231947484
 11
123.9619941206
 21
222.7231947484
  0
LINE
  5
259
100
AcDbEntity
  8
0
100
AcDbLine
 62
7
  6
CONTINUOUS
 10
248.9619941206
 20
222.7231947484
 11
268.9619941206
 21
222.7231947484
  0
LINE
  5
25A
100
AcDbEntity
  8
0
100
AcDbLine
 62
7
  6
CONTINUOUS
 10
286.9619941206
 20
222.7231947484
 11
303.9619941206
 21
222.7231947484
  0
LINE
  5
25B
100
AcDbEntity
  8
0
100
AcDbLine
 62
7
  6
CONTINUOUS
 10
94.807572724
 20
231.2231947484
 11
99.4619941206
 21
231.2231947484
  0
LINE
  5
25C
100
AcDbEntity
  8
0
100
AcDbLine
 62
7
  6
CONTINUOUS
 10
273.4619941206
 20
231.2231947484
 11
278.1163300595
 21
231.2231947484
  0
LINE
  5
25D
100
AcDbEntity
  8
0
100
AcDbLine
 62
7
  6
CONTINUOUS
 10
251.4619941206
 20
233.7239292236
 11
248.9619941206
 21
233.7239292236
  0
LINE
  5
25E
100
AcDbEntity
  8
0
100
AcDbLine
 62
7
  6
CONTINUOUS
 10
123.9619941206
 20
233.7239292236
 11
121.4619941206
 21
233.7239292236
  0
LINE
  5
25F
100
AcDbEntity
  8
0
100
AcDbLine
 62
7
  6
CONTINUOUS
 10
123.9619941206
 20
235.2231947484
 11
130.9619941206
 21
235.2231947484
  0
LINE
  5
260
100
AcDbEntity
  8
0
100
AcDbLine
 62
7
  6
CONTINUOUS
 10
241.9619941206
 20
235.2231947484
 11
248.8619941206
 21
235.2231947484
  0
LINE
  5
261
100
AcDbEntity
  8
0
100
AcDbLine
 62
7
  6
CONTINUOUS
 10
121.4619941206
 20
244.7224602731
 11
123.9619941206
 21
244.7224602731
  0
LINE
  5
262
100
AcDbEntity
  8
0
100
AcDbLine
 62
7
  6
CONTINUOUS
 10
248.9619941206
 20
244.7224602731
 11
251.4619941206
 21
244.7224602731
  0
LINE
  5
263
100
AcDbEntity
  8
0
100
AcDbLine
 62
7
  6
CONTINUOUS
 10
41.4720320702
 20
249.2231947484
 11
41.9619941206
 21
249.2231947484
  0
LINE
  5
264
100
AcDbEntity
  8
0
100
AcDbLine
 62
7
  6
CONTINUOUS
 10
330.9619941206
 20
249.2231947484
 11
331.4519561711
 21
249.2231947484
  0
LINE
  5
265
100
AcDbEntity
  8
0
100
AcDbLine
 62
7
  6
CONTINUOUS
 10
331.4619941206
 20
250.3140242689
 11
330.9619941206
 21
250.3140242689
  0
LINE
  5
266
100
AcDbEntity
  8
0
100
AcDbLine
 62
7
  6
CONTINUOUS
 10
41.4619941206
 20
250.3140242689
 11
41.9619941206
 21
250.3140242689
  0
LINE
  5
267
100
AcDbEntity
  8
0
100
AcDbLine
 62
7
  6
CONTINUOUS
 10
331.4619941206
 20
251.4048537894
 11
330.9619941206
 21
251.4048537894
  0
LINE
  5
268
100
AcDbEntity
  8
0
100
AcDbLine
 62
7
  6
CONTINUOUS
 10
41.4619941206
 20
251.4048537894
 11
41.9619941206
 21
251.4048537894
  0
LINE
  5
269
100
AcDbEntity
  8
0
100
AcDbLine
 62
7
  6
CONTINUOUS
 10
331.4619941206
 20
252.49568331
 11
330.9619941206
 21
252.49568331
  0
LINE
  5
26A
100
AcDbEntity
  8
0
100
AcDbLine
 62
7
  6
CONTINUOUS
 10
41.4619941206
 20
252.49568331
 11
41.9619941206
 21
252.49568331
  0
LINE
  5
26B
100
AcDbEntity
  8
0
100
AcDbLine
 62
7
  6
CONTINUOUS
 10
331.4619941206
 20
253.5865128305
 11
330.9619941206
 21
253.5865128305
  0
LINE
  5
26C
100
AcDbEntity
  8
0
100
AcDbLine
 62
7
  6
CONTINUOUS
 10
41.4619941206
 20
253.5865128305
 11
41.9619941206
 21
253.5865128305
  0
LINE
  5
26D
100
AcDbEntity
  8
0
100
AcDbLine
 62
7
  6
CONTINUOUS
 10
331.4619941206
 20
254.677342351
 11
330.9619941206
 21
254.677342351
  0
LINE
  5
26E
100
AcDbEntity
  8
0
100
AcDbLine
 62
7
  6
CONTINUOUS
 10
41.4619941206
 20
254.677342351
 11
41.9619941206
 21
254.677342351
  0
LINE
  5
26F
100
AcDbEntity
  8
0
100
AcDbLine
 62
7
  6
CONTINUOUS
 10
54.9619941206
 20
255.7231947484
 11
57.9619941206
 21
255.7231947484
  0
LINE
  5
270
100
AcDbEntity
  8
0
100
AcDbLine
 62
7
  6
CONTINUOUS
 10
314.9619941206
 20
255.7231947484
 11
317.9619941206
 21
255.7231947484
  0
LINE
  5
271
100
AcDbEntity
  8
0
100
AcDbLine
 62
7
  6
CONTINUOUS
 10
331.4619941206
 20
255.7681718715
 11
330.9619941206
 21
255.7681718715
  0
LINE
  5
272
100
AcDbEntity
  8
0
100
AcDbLine
 62
7
  6
CONTINUOUS
 10
41.4619941206
 20
255.7681718715
 11
41.9619941206
 21
255.7681718715
  0
LINE
  5
273
100
AcDbEntity
  8
0
100
AcDbLine
 62
7
  6
CONTINUOUS
 10
331.4619941206
 20
256.8590013921
 11
330.9619941206
 21
256.8590013921
  0
LINE
  5
274
100
AcDbEntity
  8
0
100
AcDbLine
 62
7
  6
CONTINUOUS
 10
41.4619941206
 20
256.8590013921
 11
41.9619941206
 21
256.8590013921
  0
LINE
  5
275
100
AcDbEntity
  8
0
100
AcDbLine
 62
7
  6
CONTINUOUS
 10
331.4619941206
 20
257.9498309126
 11
330.9619941206
 21
257.9498309126
  0
LINE
  5
276
100
AcDbEntity
  8
0
100
AcDbLine
 62
7
  6
CONTINUOUS
 10
41.4619941206
 20
257.9498309126
 11
41.9619941206
 21
257.9498309126
  0
LINE
  5
277
100
AcDbEntity
  8
0
100
AcDbLine
 62
7
  6
CONTINUOUS
 10
331.4619941206
 20
259.0406604331
 11
330.9619941206
 21
259.0406604331
  0
LINE
  5
278
100
AcDbEntity
  8
0
100
AcDbLine
 62
7
  6
CONTINUOUS
 10
41.4619941206
 20
259.0406604331
 11
41.9619941206
 21
259.0406604331
  0
LINE
  5
279
100
AcDbEntity
  8
0
100
AcDbLine
 62
7
  6
CONTINUOUS
 10
41.9619941206
 20
259.2231947484
 11
41.4619941206
 21
259.2231947484
  0
LINE
  5
27A
100
AcDbEntity
  8
0
100
AcDbLine
 62
7
  6
CONTINUOUS
 10
330.9619941206
 20
259.2231947484
 11
331.4619941206
 21
259.2231947484
  0
LINE
  5
27B
100
AcDbEntity
  8
0
100
AcDbLine
 62
7
  6
CONTINUOUS
 10
331.4619941206
 20
259.4057290636
 11
330.9619941206
 21
259.4057290636
  0
LINE
  5
27C
100
AcDbEntity
  8
0
100
AcDbLine
 62
7
  6
CONTINUOUS
 10
41.4619941206
 20
259.4057290636
 11
41.9619941206
 21
259.4057290636
  0
LINE
  5
27D
100
AcDbEntity
  8
0
100
AcDbLine
 62
7
  6
CONTINUOUS
 10
331.4619941206
 20
260.4965585841
 11
330.9619941206
 21
260.4965585841
  0
LINE
  5
27E
100
AcDbEntity
  8
0
100
AcDbLine
 62
7
  6
CONTINUOUS
 10
41.4619941206
 20
260.4965585841
 11
41.9619941206
 21
260.4965585841
  0
LINE
  5
27F
100
AcDbEntity
  8
0
100
AcDbLine
 62
7
  6
CONTINUOUS
 10
331.4619941206
 20
261.5873881046
 11
330.9619941206
 21
261.5873881046
  0
LINE
  5
280
100
AcDbEntity
  8
0
100
AcDbLine
 62
7
  6
CONTINUOUS
 10
41.4619941206
 20
261.5873881046
 11
41.9619941206
 21
261.5873881046
  0
LINE
  5
281
100
AcDbEntity
  8
0
100
AcDbLine
 62
7
  6
CONTINUOUS
 10
331.4619941206
 20
262.6782176252
 11
330.9619941206
 21
262.6782176252
  0
LINE
  5
282
100
AcDbEntity
  8
0
100
AcDbLine
 62
7
  6
CONTINUOUS
 10
41.4619941206
 20
262.6782176252
 11
41.9619941206
 21
262.6782176252
  0
LINE
  5
283
100
AcDbEntity
  8
0
100
AcDbLine
 62
7
  6
CONTINUOUS
 10
317.9619941206
 20
262.7231947484
 11
314.9619941206
 21
262.7231947484
  0
LINE
  5
284
100
AcDbEntity
  8
0
100
AcDbLine
 62
7
  6
CONTINUOUS
 10
57.9619941206
 20
262.7231947484
 11
54.9619941206
 21
262.7231947484
  0
LINE
  5
285
100
AcDbEntity
  8
0
100
AcDbLine
 62
7
  6
CONTINUOUS
 10
331.4619941206
 20
263.7690471457
 11
330.9619941206
 21
263.7690471457
  0
LINE
  5
286
100
AcDbEntity
  8
0
100
AcDbLine
 62
7
  6
CONTINUOUS
 10
41.4619941206
 20
263.7690471457
 11
41.9619941206
 21
263.7690471457
  0
LINE
  5
287
100
AcDbEntity
  8
0
100
AcDbLine
 62
7
  6
CONTINUOUS
 10
331.4619941206
 20
264.8598766662
 11
330.9619941206
 21
264.8598766662
  0
LINE
  5
288
100
AcDbEntity
  8
0
100
AcDbLine
 62
7
  6
CONTINUOUS
 10
41.4619941206
 20
264.8598766662
 11
41.9619941206
 21
264.8598766662
  0
LINE
  5
289
100
AcDbEntity
  8
0
100
AcDbLine
 62
7
  6
CONTINUOUS
 10
331.4619941206
 20
265.9507061868
 11
330.9619941206
 21
265.9507061868
  0
LINE
  5
28A
100
AcDbEntity
  8
0
100
AcDbLine
 62
7
  6
CONTINUOUS
 10
41.4619941206
 20
265.9507061868
 11
41.9619941206
 21
265.9507061868
  0
LINE
  5
28B
100
AcDbEntity
  8
0
100
AcDbLine
 62
7
  6
CONTINUOUS
 10
331.4619941206
 20
267.0415357073
 11
330.9619941206
 21
267.0415357073
  0
LINE
  5
28C
100
AcDbEntity
  8
0
100
AcDbLine
 62
7
  6
CONTINUOUS
 10
41.4619941206
 20
267.0415357073
 11
41.9619941206
 21
267.0415357073
  0
LINE
  5
28D
100
AcDbEntity
  8
0
100
AcDbLine
 62
7
  6
CONTINUOUS
 10
331.4619941206
 20
268.1323652278
 11
330.9619941206
 21
268.1323652278
  0
LINE
  5
28E
100
AcDbEntity
  8
0
100
AcDbLine
 62
7
  6
CONTINUOUS
 10
41.4619941206
 20
268.1323652278
 11
41.9619941206
 21
268.1323652278
  0
LINE
  5
28F
100
AcDbEntity
  8
0
100
AcDbLine
 62
7
  6
CONTINUOUS
 10
331.4519561711
 20
269.2231947484
 11
330.9619941206
 21
269.2231947484
  0
LINE
  5
290
100
AcDbEntity
  8
0
100
AcDbLine
 62
7
  6
CONTINUOUS
 10
41.9619941206
 20
269.2231947484
 11
41.4720320702
 21
269.2231947484
  0
LINE
  5
291
100
AcDbEntity
  8
0
100
AcDbLine
 62
7
  6
CONTINUOUS
 10
251.4619941206
 20
273.7239292236
 11
248.9619941206
 21
273.7239292236
  0
LINE
  5
292
100
AcDbEntity
  8
0
100
AcDbLine
 62
7
  6
CONTINUOUS
 10
123.9619941206
 20
273.7239292236
 11
121.4619941206
 21
273.7239292236
  0
LINE
  5
293
100
AcDbEntity
  8
0
100
AcDbLine
 62
7
  6
CONTINUOUS
 10
130.9619941206
 20
283.2231947484
 11
124.0619941206
 21
283.2231947484
  0
LINE
  5
294
100
AcDbEntity
  8
0
100
AcDbLine
 62
7
  6
CONTINUOUS
 10
241.9619941206
 20
283.2231947484
 11
248.9619941206
 21
283.2231947484
  0
LINE
  5
295
100
AcDbEntity
  8
0
100
AcDbLine
 62
7
  6
CONTINUOUS
 10
121.4619941206
 20
284.7224602731
 11
123.9619941206
 21
284.7224602731
  0
LINE
  5
296
100
AcDbEntity
  8
0
100
AcDbLine
 62
7
  6
CONTINUOUS
 10
248.9619941206
 20
284.7224602731
 11
251.4619941206
 21
284.7224602731
  0
LINE
  5
297
100
AcDbEntity
  8
0
100
AcDbLine
 62
7
  6
CONTINUOUS
 10
278.1164155173
 20
287.2231947484
 11
273.4619941206
 21
287.2231947484
  0
LINE
  5
298
100
AcDbEntity
  8
0
100
AcDbLine
 62
7
  6
CONTINUOUS
 10
99.4619941206
 20
287.2231947484
 11
94.8076581818
 21
287.2231947484
  0
LINE
  5
299
100
AcDbEntity
  8
0
100
AcDbLine
 62
7
  6
CONTINUOUS
 10
224.9619941206
 20
309.2231947484
 11
224.9619941206
 21
306.7231947484
  0
LINE
  5
29A
100
AcDbEntity
  8
0
100
AcDbLine
 62
7
  6
CONTINUOUS
 10
224.9619941206
 20
211.7231947484
 11
224.9619941206
 21
209.2231947484
  0
LINE
  5
29B
100
AcDbEntity
  8
0
100
AcDbLine
 62
7
  6
CONTINUOUS
 10
227.9619941206
 20
209.2231947484
 11
227.9619941206
 21
211.7231947484
  0
LINE
  5
29C
100
AcDbEntity
  8
0
100
AcDbLine
 62
7
  6
CONTINUOUS
 10
227.9619941206
 20
306.7231947484
 11
227.9619941206
 21
309.2231947484
  0
LINE
  5
29D
100
AcDbEntity
  8
0
100
AcDbLine
 62
7
  6
CONTINUOUS
 10
303.9619941206
 20
295.7231947484
 11
286.9619941206
 21
295.7231947484
  0
LINE
  5
29E
100
AcDbEntity
  8
0
100
AcDbLine
 62
7
  6
CONTINUOUS
 10
85.9619941206
 20
295.7231947484
 11
68.9619941206
 21
295.7231947484
  0
LINE
  5
29F
100
AcDbEntity
  8
0
100
AcDbLine
 62
7
  6
CONTINUOUS
 10
103.9619941206
 20
295.7231947484
 11
123.9619941206
 21
295.7231947484
  0
LINE
  5
2A0
100
AcDbEntity
  8
0
100
AcDbLine
 62
7
  6
CONTINUOUS
 10
248.9619941206
 20
295.7231947484
 11
268.9619941206
 21
295.7231947484
  0
LINE
  5
2A1
100
AcDbEntity
  8
0
100
AcDbLine
 62
7
  6
CONTINUOUS
 10
123.9619941206
 20
299.2478288947
 11
121.4619941206
 21
299.2478288947
  0
LINE
  5
2A2
100
AcDbEntity
  8
0
100
AcDbLine
 62
7
  6
CONTINUOUS
 10
248.9619941206
 20
299.2478288947
 11
251.4619941206
 21
299.2478288947
  0
LINE
  5
2A3
100
AcDbEntity
  8
0
100
AcDbLine
 62
7
  6
CONTINUOUS
 10
251.4619941206
 20
299.4478288947
 11
248.9619941206
 21
299.4478288947
  0
LINE
  5
2A4
100
AcDbEntity
  8
0
100
AcDbLine
 62
7
  6
CONTINUOUS
 10
121.4619941206
 20
299.4478288947
 11
123.9619941206
 21
299.4478288947
  0
LINE
  5
2A5
100
AcDbEntity
  8
0
100
AcDbLine
 62
7
  6
CONTINUOUS
 10
303.9619941206
 20
299.4731947484
 11
297.2119941206
 21
299.4731947484
  0
LINE
  5
2A6
100
AcDbEntity
  8
0
100
AcDbLine
 62
7
  6
CONTINUOUS
 10
75.7119941206
 20
299.4731947484
 11
68.9619941206
 21
299.4731947484
  0
LINE
  5
2A7
100
AcDbEntity
  8
0
100
AcDbLine
 62
7
  6
CONTINUOUS
 10
268.9619941206
 20
301.2231947484
 11
258.9069941206
 21
301.2231947484
  0
LINE
  5
2A8
100
AcDbEntity
  8
0
100
AcDbLine
 62
7
  6
CONTINUOUS
 10
114.0169941206
 20
301.2231947484
 11
103.9619941206
 21
301.2231947484
  0
LINE
  5
2A9
100
AcDbEntity
  8
0
100
AcDbLine
 62
7
  6
CONTINUOUS
 10
68.9619941206
 20
302.2231947484
 11
85.9619941206
 21
302.2231947484
  0
LINE
  5
2AA
100
AcDbEntity
  8
0
100
AcDbLine
 62
7
  6
CONTINUOUS
 10
85.9619941206
 20
304.2231947484
 11
68.9619941206
 21
304.2231947484
  0
LINE
  5
2AB
100
AcDbEntity
  8
0
100
AcDbLine
 62
7
  6
CONTINUOUS
 10
43.9619941206
 20
304.7231947484
 11
68.9619941206
 21
304.7231947484
  0
LINE
  5
2AC
100
AcDbEntity
  8
0
100
AcDbLine
 62
7
  6
CONTINUOUS
 10
85.9619941206
 20
304.7231947484
 11
103.9619941206
 21
304.7231947484
  0
LINE
  5
2AD
100
AcDbEntity
  8
0
100
AcDbLine
 62
7
  6
CONTINUOUS
 10
253.4619941206
 20
304.7231947484
 11
258.9069941206
 21
304.7231947484
  0
LINE
  5
2AE
100
AcDbEntity
  8
0
100
AcDbLine
 62
7
  6
CONTINUOUS
 10
268.9619941206
 20
304.7231947484
 11
328.9619941206
 21
304.7231947484
  0
LINE
  5
2AF
100
AcDbEntity
  8
0
100
AcDbLine
 62
7
  6
CONTINUOUS
 10
103.9619941206
 20
305.2231947484
 11
114.0169941206
 21
305.2231947484
  0
LINE
  5
2B0
100
AcDbEntity
  8
0
100
AcDbLine
 62
7
  6
CONTINUOUS
 10
258.9069941206
 20
305.2231947484
 11
268.9619941206
 21
305.2231947484
  0
LINE
  5
2B1
100
AcDbEntity
  8
0
100
AcDbLine
 62
7
  6
CONTINUOUS
 10
249.4180736038
 20
306.4231947484
 11
248.9619941206
 21
306.4231947484
  0
LINE
  5
2B2
100
AcDbEntity
  8
0
100
AcDbLine
 62
7
  6
CONTINUOUS
 10
119.4619941206
 20
306.4231947484
 11
120.3844264083
 21
306.4231947484
  0
LINE
  5
2B3
100
AcDbEntity
  8
0
100
AcDbLine
 62
7
  6
CONTINUOUS
 10
123.505943349
 20
306.4231947484
 11
123.9619941206
 21
306.4231947484
  0
LINE
  5
2B4
100
AcDbEntity
  8
0
100
AcDbLine
 62
7
  6
CONTINUOUS
 10
252.539470411
 20
306.4231947484
 11
253.4619941206
 21
306.4231947484
  0
LINE
  5
2B5
100
AcDbEntity
  8
0
100
AcDbLine
 62
7
  6
CONTINUOUS
 10
119.4619941206
 20
306.7231947484
 11
103.9619941206
 21
306.7231947484
  0
LINE
  5
2B6
100
AcDbEntity
  8
0
100
AcDbLine
 62
7
  6
CONTINUOUS
 10
85.9619941206
 20
306.7231947484
 11
68.9619941206
 21
306.7231947484
  0
LINE
  5
2B7
100
AcDbEntity
  8
0
100
AcDbLine
 62
7
  6
CONTINUOUS
 10
123.4254638011
 20
306.7231947484
 11
147.9619941206
 21
306.7231947484
  0
LINE
  5
2B8
100
AcDbEntity
  8
0
100
AcDbLine
 62
7
  6
CONTINUOUS
 10
224.9619941206
 20
306.7231947484
 11
249.4985582185
 21
306.7231947484
  0
LINE
  5
2B9
100
AcDbEntity
  8
0
100
AcDbLine
 62
7
  6
CONTINUOUS
 10
253.4619941206
 20
306.7231947484
 11
268.9619941206
 21
306.7231947484
  0
LINE
  5
2BA
100
AcDbEntity
  8
0
100
AcDbLine
 62
7
  6
CONTINUOUS
 10
286.9619941206
 20
306.7231947484
 11
303.9619941206
 21
306.7231947484
  0
LINE
  5
2BB
100
AcDbEntity
  8
0
100
AcDbLine
 62
7
  6
CONTINUOUS
 10
41.4720320702
 20
309.2231947484
 11
147.9619941206
 21
309.2231947484
  0
LINE
  5
2BC
100
AcDbEntity
  8
0
100
AcDbLine
 62
7
  6
CONTINUOUS
 10
224.9619941206
 20
309.2231947484
 11
331.4519561711
 21
309.2231947484
  0
LINE
  5
2BD
100
AcDbEntity
  8
0
100
AcDbLine
 62
7
  6
CONTINUOUS
 10
238.9619941206
 20
280.2231947484
 11
238.9619941206
 21
238.2231947484
  0
LINE
  5
2BE
100
AcDbEntity
  8
0
100
AcDbLine
 62
7
  6
CONTINUOUS
 10
248.8619941206
 20
283.2231947484
 11
248.8619941206
 21
235.2231947484
  0
LINE
  5
2BF
100
AcDbEntity
  8
0
100
AcDbLine
 62
7
  6
CONTINUOUS
 10
248.9619941206
 20
212.0231947484
 11
248.9619941206
 21
306.4231947484
  0
LINE
  5
2C0
100
AcDbEntity
  8
0
100
AcDbLine
 62
7
  6
CONTINUOUS
 10
251.4619941206
 20
304.7231947484
 11
251.4619941206
 21
295.7231947484
  0
LINE
  5
2C1
100
AcDbEntity
  8
0
100
AcDbLine
 62
7
  6
CONTINUOUS
 10
251.4619941206
 20
284.7224602731
 11
251.4619941206
 21
282.6787045263
  0
LINE
  5
2C2
100
AcDbEntity
  8
0
100
AcDbLine
 62
7
  6
CONTINUOUS
 10
251.4619941206
 20
275.7676549724
 11
251.4619941206
 21
273.7239292236
  0
LINE
  5
2C3
100
AcDbEntity
  8
0
100
AcDbLine
 62
7
  6
CONTINUOUS
 10
251.4619941206
 20
244.7224602731
 11
251.4619941206
 21
242.6787045263
  0
LINE
  5
2C4
100
AcDbEntity
  8
0
100
AcDbLine
 62
7
  6
CONTINUOUS
 10
251.4619941206
 20
235.7676549724
 11
251.4619941206
 21
233.7239292236
  0
LINE
  5
2C5
100
AcDbEntity
  8
0
100
AcDbLine
 62
7
  6
CONTINUOUS
 10
251.4619941206
 20
222.7231947484
 11
251.4619941206
 21
213.7231947484
  0
LINE
  5
2C6
100
AcDbEntity
  8
0
100
AcDbLine
 62
7
  6
CONTINUOUS
 10
253.4619941206
 20
211.7231947484
 11
253.4619941206
 21
234.9985654995
  0
LINE
  5
2C7
100
AcDbEntity
  8
0
100
AcDbLine
 62
7
  6
CONTINUOUS
 10
253.4619941206
 20
236.8028366695
 11
253.4619941206
 21
241.6342378803
  0
LINE
  5
2C8
100
AcDbEntity
  8
0
100
AcDbLine
 62
7
  6
CONTINUOUS
 10
253.4619941206
 20
243.4478325882
 11
253.4619941206
 21
274.9985654995
  0
LINE
  5
2C9
100
AcDbEntity
  8
0
100
AcDbLine
 62
7
  6
CONTINUOUS
 10
253.4619941206
 20
276.8028366695
 11
253.4619941206
 21
281.6342378803
  0
LINE
  5
2CA
100
AcDbEntity
  8
0
100
AcDbLine
 62
7
  6
CONTINUOUS
 10
253.4619941206
 20
283.4478325882
 11
253.4619941206
 21
306.7231947484
  0
LINE
  5
2CB
100
AcDbEntity
  8
0
100
AcDbLine
 62
7
  6
CONTINUOUS
 10
258.9069941206
 20
305.2231947484
 11
258.9069941206
 21
301.2231947484
  0
LINE
  5
2CC
100
AcDbEntity
  8
0
100
AcDbLine
 62
7
  6
CONTINUOUS
 10
258.9069941206
 20
217.2231947484
 11
258.9069941206
 21
213.2231947484
  0
LINE
  5
2CD
100
AcDbEntity
  8
0
100
AcDbLine
 62
7
  6
CONTINUOUS
 10
268.9619941206
 20
209.2231947484
 11
268.9619941206
 21
222.7231947484
  0
LINE
  5
2CE
100
AcDbEntity
  8
0
100
AcDbLine
 62
7
  6
CONTINUOUS
 10
268.9619941206
 20
295.7231947484
 11
268.9619941206
 21
309.2231947484
  0
LINE
  5
2CF
100
AcDbEntity
  8
0
100
AcDbLine
 62
7
  6
CONTINUOUS
 10
270.9619941206
 20
284.7231947484
 11
270.9619941206
 21
279.9328062665
  0
LINE
  5
2D0
100
AcDbEntity
  8
0
100
AcDbLine
 62
7
  6
CONTINUOUS
 10
270.9619941206
 20
238.5266985988
 11
270.9619941206
 21
233.7231947484
  0
LINE
  5
2D1
100
AcDbEntity
  8
0
100
AcDbLine
 62
7
  6
CONTINUOUS
 10
286.9619941206
 20
222.7231947484
 11
286.9619941206
 21
209.2231947484
  0
LINE
  5
2D2
100
AcDbEntity
  8
0
100
AcDbLine
 62
7
  6
CONTINUOUS
 10
286.9619941206
 20
295.7231947484
 11
286.9619941206
 21
309.2231947484
  0
LINE
  5
2D3
100
AcDbEntity
  8
0
100
AcDbLine
 62
7
  6
CONTINUOUS
 10
296.7119941206
 20
298.9731947484
 11
296.7119941206
 21
295.7231947484
  0
LINE
  5
2D4
100
AcDbEntity
  8
0
100
AcDbLine
 62
7
  6
CONTINUOUS
 10
296.7119941206
 20
222.7231947484
 11
296.7119941206
 21
219.4731947484
  0
LINE
  5
2D5
100
AcDbEntity
  8
0
100
AcDbLine
 62
7
  6
CONTINUOUS
 10
303.9619941206
 20
209.2231947484
 11
303.9619941206
 21
222.7231947484
  0
LINE
  5
2D6
100
AcDbEntity
  8
0
100
AcDbLine
 62
7
  6
CONTINUOUS
 10
303.9619941206
 20
295.7231947484
 11
303.9619941206
 21
309.2231947484
  0
LINE
  5
2D7
100
AcDbEntity
  8
0
100
AcDbLine
 62
7
  6
CONTINUOUS
 10
328.9619941206
 20
309.2231947484
 11
328.9619941206
 21
209.2231947484
  0
LINE
  5
2D8
100
AcDbEntity
  8
0
100
AcDbLine
 62
7
  6
CONTINUOUS
 10
329.2365767557
 20
309.2231947484
 11
329.2365767557
 21
209.2231947484
  0
LINE
  5
2D9
100
AcDbEntity
  8
0
100
AcDbLine
 62
7
  6
CONTINUOUS
 10
330.9619941206
 20
249.2231947484
 11
330.9619941206
 21
269.2231947484
  0
LINE
  5
2DA
100
AcDbEntity
  8
0
100
AcDbLine
 62
7
  6
CONTINUOUS
 10
331.4519561711
 20
209.2231947484
 11
331.4519561711
 21
249.2231947484
  0
LINE
  5
2DB
100
AcDbEntity
  8
0
100
AcDbLine
 62
7
  6
CONTINUOUS
 10
331.4519561711
 20
269.2231947484
 11
331.4519561711
 21
309.2231947484
  0
LINE
  5
2DC
100
AcDbEntity
  8
0
100
AcDbLine
 62
7
  6
CONTINUOUS
 10
331.4619941206
 20
309.2231947484
 11
331.4619941206
 21
209.2231947484
  0
ARC
  5
2DD
100
AcDbEntity
  8
0
100
AcDbCircle
 62
7
  6
CONTINUOUS
 10
118.9619941206
 20
239.2231947484
 40
7.36
100
AcDbArc
 50
86.1046234658
 51
90.0977744152
  0
ARC
  5
2DE
100
AcDbEntity
  8
0
100
AcDbCircle
 62
7
  6
CONTINUOUS
 10
118.9619941206
 20
239.2231947484
 40
7.36
100
AcDbArc
 50
269.9022255848
 51
273.8953765342
  0
CIRCLE
  5
2DF
100
AcDbEntity
  8
0
100
AcDbCircle
 62
7
  6
CONTINUOUS
 10
98.9619941206
 20
234.2231947484
 40
5.25
  0
ARC
  5
2E0
100
AcDbEntity
  8
0
100
AcDbCircle
 62
7
  6
CONTINUOUS
 10
119.4619941206
 20
213.7231947484
 40
4.5
100
AcDbArc
 50
270.0
 51
360.0
  0
ARC
  5
2E1
100
AcDbEntity
  8
0
100
AcDbCircle
 62
7
  6
CONTINUOUS
 10
118.9619941206
 20
239.2231947484
 40
4.36
100
AcDbArc
 50
269.9022255846
 51
90.0977744155
  0
ARC
  5
2E2
100
AcDbEntity
  8
0
100
AcDbCircle
 62
7
  6
CONTINUOUS
 10
130.9619941206
 20
238.2231947484
 40
3.0
100
AcDbArc
 50
270.0
 51
360.0
  0
CIRCLE
  5
2E3
100
AcDbEntity
  8
0
100
AcDbCircle
 62
7
  6
CONTINUOUS
 10
118.9619941206
 20
239.2231947484
 40
2.5
  0
ARC
  5
2E4
100
AcDbEntity
  8
0
100
AcDbCircle
 62
7
  6
CONTINUOUS
 10
99.4619941206
 20
233.7231947484
 40
2.5
100
AcDbArc
 50
270.0
 51
360.0
  0
ARC
  5
2E5
100
AcDbEntity
  8
0
100
AcDbCircle
 62
7
  6
CONTINUOUS
 10
119.4619941206
 20
213.7231947484
 40
2.0
100
AcDbArc
 50
270.0
 51
360.0
  0
ARC
  5
2E6
100
AcDbEntity
  8
0
100
AcDbCircle
 62
7
  6
CONTINUOUS
 10
115.5169941206
 20
213.2231947484
 40
1.5
100
AcDbArc
 50
180.0
 51
270.0
  0
ARC
  5
2E7
100
AcDbEntity
  8
0
100
AcDbCircle
 62
7
  6
CONTINUOUS
 10
118.9519941206
 20
245.0831862159
 40
1.5
100
AcDbArc
 50
90.0977744151
 51
270.0977744143
  0
ARC
  5
2E8
100
AcDbEntity
  8
0
100
AcDbCircle
 62
7
  6
CONTINUOUS
 10
118.9519941206
 20
233.3632032808
 40
1.5
100
AcDbArc
 50
89.9022255851
 51
269.902225585
  0
ARC
  5
2E9
100
AcDbEntity
  8
0
100
AcDbCircle
 62
7
  6
CONTINUOUS
 10
75.7119941206
 20
219.4731947484
 40
0.5
100
AcDbArc
 50
270.0
 51
360.0
  0
ARC
  5
2EA
100
AcDbEntity
  8
0
100
AcDbCircle
 62
7
  6
CONTINUOUS
 10
118.9619941206
 20
279.2231947484
 40
7.36
100
AcDbArc
 50
86.1046234658
 51
90.0977744152
  0
ARC
  5
2EB
100
AcDbEntity
  8
0
100
AcDbCircle
 62
7
  6
CONTINUOUS
 10
118.9619941206
 20
279.2231947484
 40
7.36
100
AcDbArc
 50
269.9022255848
 51
273.8953765342
  0
CIRCLE
  5
2EC
100
AcDbEntity
  8
0
100
AcDbCircle
 62
7
  6
CONTINUOUS
 10
57.9619941206
 20
259.2231947484
 40
5.25
  0
CIRCLE
  5
2ED
100
AcDbEntity
  8
0
100
AcDbCircle
 62
7
  6
CONTINUOUS
 10
98.9619941206
 20
284.2231947484
 40
5.25
  0
ARC
  5
2EE
100
AcDbEntity
  8
0
100
AcDbCircle
 62
7
  6
CONTINUOUS
 10
57.9619941206
 20
259.2231947484
 40
5.2
100
AcDbArc
 50
134.2062564122
 51
226.032460113
  0
ARC
  5
2EF
100
AcDbEntity
  8
0
100
AcDbCircle
 62
7
  6
CONTINUOUS
 10
119.4619941206
 20
304.7231947484
 40
4.5
100
AcDbArc
 50
0.0
 51
90.0
  0
ARC
  5
2F0
100
AcDbEntity
  8
0
100
AcDbCircle
 62
7
  6
CONTINUOUS
 10
118.9619941206
 20
279.2231947484
 40
4.36
100
AcDbArc
 50
269.9022255846
 51
90.0977744154
  0
ARC
  5
2F1
100
AcDbEntity
  8
0
100
AcDbCircle
 62
7
  6
CONTINUOUS
 10
57.9619941206
 20
259.2231947484
 40
3.5
100
AcDbArc
 50
270.0
 51
90.0
  0
ARC
  5
2F2
100
AcDbEntity
  8
0
100
AcDbCircle
 62
7
  6
CONTINUOUS
 10
54.9619941206
 20
259.2231947484
 40
3.5
100
AcDbArc
 50
90.0
 51
106.0161854953
  0
ARC
  5
2F3
100
AcDbEntity
  8
0
100
AcDbCircle
 62
7
  6
CONTINUOUS
 10
54.9619941206
 20
259.2231947484
 40
3.5
100
AcDbArc
 50
254.03319974
 51
270.0
  0
ARC
  5
2F4
100
AcDbEntity
  8
0
100
AcDbCircle
 62
7
  6
CONTINUOUS
 10
130.9619941206
 20
280.2231947484
 40
3.0
100
AcDbArc
 50
0.0
 51
90.0
  0
CIRCLE
  5
2F5
100
AcDbEntity
  8
0
100
AcDbCircle
 62
7
  6
CONTINUOUS
 10
57.9619941206
 20
259.2231947484
 40
2.7
  0
CIRCLE
  5
2F6
100
AcDbEntity
  8
0
100
AcDbCircle
 62
7
  6
CONTINUOUS
 10
118.9619941206
 20
279.2231947484
 40
2.5
  0
ARC
  5
2F7
100
AcDbEntity
  8
0
100
AcDbCircle
 62
7
  6
CONTINUOUS
 10
99.4619941206
 20
284.7231947484
 40
2.5
100
AcDbArc
 50
0.0
 51
90.0
  0
ARC
  5
2F8
100
AcDbEntity
  8
0
100
AcDbCircle
 62
7
  6
CONTINUOUS
 10
119.4619941206
 20
304.7231947484
 40
2.0
100
AcDbArc
 50
0.0
 51
90.0
  0
ARC
  5
2F9
100
AcDbEntity
  8
0
100
AcDbCircle
 62
7
  6
CONTINUOUS
 10
115.5169941206
 20
305.2231947484
 40
1.5
100
AcDbArc
 50
90.0
 51
180.0
  0
ARC
  5
2FA
100
AcDbEntity
  8
0
100
AcDbCircle
 62
7
  6
CONTINUOUS
 10
118.9519941206
 20
285.0831862159
 40
1.5
100
AcDbArc
 50
90.0977744151
 51
270.0977744147
  0
ARC
  5
2FB
100
AcDbEntity
  8
0
100
AcDbCircle
 62
7
  6
CONTINUOUS
 10
118.9519941206
 20
273.3632032808
 40
1.5
100
AcDbArc
 50
89.9022255852
 51
269.902225585
  0
ARC
  5
2FC
100
AcDbEntity
  8
0
100
AcDbCircle
 62
7
  6
CONTINUOUS
 10
75.7119941206
 20
298.9731947484
 40
0.5
100
AcDbArc
 50
0.0
 51
90.0
  0
ARC
  5
2FD
100
AcDbEntity
  8
0
100
AcDbCircle
 62
7
  6
CONTINUOUS
 10
253.9619941206
 20
239.2231947484
 40
7.36
100
AcDbArc
 50
266.1046234658
 51
270.0977744152
  0
ARC
  5
2FE
100
AcDbEntity
  8
0
100
AcDbCircle
 62
7
  6
CONTINUOUS
 10
253.9619941206
 20
239.2231947484
 40
7.36
100
AcDbArc
 50
89.9022255848
 51
93.8953765342
  0
CIRCLE
  5
2FF
100
AcDbEntity
  8
0
100
AcDbCircle
 62
7
  6
CONTINUOUS
 10
273.9619941206
 20
234.2231947484
 40
5.25
  0
ARC
  5
300
100
AcDbEntity
  8
0
100
AcDbCircle
 62
7
  6
CONTINUOUS
 10
253.4619941206
 20
213.7231947484
 40
4.5
100
AcDbArc
 50
180.0
 51
270.0
  0
ARC
  5
301
100
AcDbEntity
  8
0
100
AcDbCircle
 62
7
  6
CONTINUOUS
 10
253.9619941206
 20
239.2231947484
 40
4.36
100
AcDbArc
 50
89.9022255846
 51
270.0977744154
  0
ARC
  5
302
100
AcDbEntity
  8
0
100
AcDbCircle
 62
7
  6
CONTINUOUS
 10
241.9619941206
 20
238.2231947484
 40
3.0
100
AcDbArc
 50
180.0
 51
270.0
  0
CIRCLE
  5
303
100
AcDbEntity
  8
0
100
AcDbCircle
 62
7
  6
CONTINUOUS
 10
253.9619941206
 20
239.2231947484
 40
2.5
  0
ARC
  5
304
100
AcDbEntity
  8
0
100
AcDbCircle
 62
7
  6
CONTINUOUS
 10
273.4619941206
 20
233.7231947484
 40
2.5
100
AcDbArc
 50
180.0
 51
270.0
  0
ARC
  5
305
100
AcDbEntity
  8
0
100
AcDbCircle
 62
7
  6
CONTINUOUS
 10
253.4619941206
 20
213.7231947484
 40
2.0
100
AcDbArc
 50
180.0
 51
270.0
  0
ARC
  5
306
100
AcDbEntity
  8
0
100
AcDbCircle
 62
7
  6
CONTINUOUS
 10
257.4069941206
 20
213.2231947484
 40
1.5
100
AcDbArc
 50
270.0
 51
360.0
  0
ARC
  5
307
100
AcDbEntity
  8
0
100
AcDbCircle
 62
7
  6
CONTINUOUS
 10
253.9719941206
 20
233.3632032808
 40
1.5
100
AcDbArc
 50
270.0977744151
 51
90.0977744147
  0
ARC
  5
308
100
AcDbEntity
  8
0
100
AcDbCircle
 62
7
  6
CONTINUOUS
 10
253.9719941206
 20
245.0831862159
 40
1.5
100
AcDbArc
 50
269.9022255852
 51
89.902225585
  0
ARC
  5
309
100
AcDbEntity
  8
0
100
AcDbCircle
 62
7
  6
CONTINUOUS
 10
297.2119941206
 20
219.4731947484
 40
0.5
100
AcDbArc
 50
180.0
 51
270.0
  0
ARC
  5
30A
100
AcDbEntity
  8
0
100
AcDbCircle
 62
7
  6
CONTINUOUS
 10
253.9619941206
 20
279.2231947484
 40
7.36
100
AcDbArc
 50
266.1046234658
 51
270.0977744152
  0
ARC
  5
30B
100
AcDbEntity
  8
0
100
AcDbCircle
 62
7
  6
CONTINUOUS
 10
253.9619941206
 20
279.2231947484
 40
7.36
100
AcDbArc
 50
89.9022255848
 51
93.8953765342
  0
CIRCLE
  5
30C
100
AcDbEntity
  8
0
100
AcDbCircle
 62
7
  6
CONTINUOUS
 10
314.9619941206
 20
259.2231947484
 40
5.25
  0
CIRCLE
  5
30D
100
AcDbEntity
  8
0
100
AcDbCircle
 62
7
  6
CONTINUOUS
 10
273.9619941206
 20
284.2231947484
 40
5.25
  0
ARC
  5
30E
100
AcDbEntity
  8
0
100
AcDbCircle
 62
7
  6
CONTINUOUS
 10
314.9619941206
 20
259.2231947484
 40
5.2
100
AcDbArc
 50
321.4136433512
 51
40.0143037192
  0
ARC
  5
30F
100
AcDbEntity
  8
0
100
AcDbCircle
 62
7
  6
CONTINUOUS
 10
253.4619941206
 20
304.7231947484
 40
4.5
100
AcDbArc
 50
90.0
 51
180.0
  0
ARC
  5
310
100
AcDbEntity
  8
0
100
AcDbCircle
 62
7
  6
CONTINUOUS
 10
253.9619941206
 20
279.2231947484
 40
4.36
100
AcDbArc
 50
89.9022255846
 51
270.0977744155
  0
ARC
  5
311
100
AcDbEntity
  8
0
100
AcDbCircle
 62
7
  6
CONTINUOUS
 10
314.9619941206
 20
259.2231947484
 40
3.5
100
AcDbArc
 50
90.0
 51
270.0
  0
ARC
  5
312
100
AcDbEntity
  8
0
100
AcDbCircle
 62
7
  6
CONTINUOUS
 10
317.9619941206
 20
259.2231947484
 40
3.5
100
AcDbArc
 50
270.0
 51
286.0161854953
  0
ARC
  5
313
100
AcDbEntity
  8
0
100
AcDbCircle
 62
7
  6
CONTINUOUS
 10
317.9619941206
 20
259.2231947484
 40
3.5
100
AcDbArc
 50
74.03319974
 51
90.0
  0
ARC
  5
314
100
AcDbEntity
  8
0
100
AcDbCircle
 62
7
  6
CONTINUOUS
 10
241.9619941206
 20
280.2231947484
 40
3.0
100
AcDbArc
 50
90.0
 51
180.0
  0
CIRCLE
  5
315
100
AcDbEntity
  8
0
100
AcDbCircle
 62
7
  6
CONTINUOUS
 10
314.9619941206
 20
259.2231947484
 40
2.7
  0
CIRCLE
  5
316
100
AcDbEntity
  8
0
100
AcDbCircle
 62
7
  6
CONTINUOUS
 10
253.9619941206
 20
279.2231947484
 40
2.5
  0
ARC
  5
317
100
AcDbEntity
  8
0
100
AcDbCircle
 62
7
  6
CONTINUOUS
 10
273.4619941206
 20
284.7231947484
 40
2.5
100
AcDbArc
 50
90.0
 51
180.0
  0
ARC
  5
318
100
AcDbEntity
  8
0
100
AcDbCircle
 62
7
  6
CONTINUOUS
 10
253.4619941206
 20
304.7231947484
 40
2.0
100
AcDbArc
 50
90.0
 51
180.0
  0
ARC
  5
319
100
AcDbEntity
  8
0
100
AcDbCircle
 62
7
  6
CONTINUOUS
 10
257.4069941206
 20
305.2231947484
 40
1.5
100
AcDbArc
 50
0.0
 51
90.0
  0
ARC
  5
31A
100
AcDbEntity
  8
0
100
AcDbCircle
 62
7
  6
CONTINUOUS
 10
253.9719941206
 20
273.3632032808
 40
1.5
100
AcDbArc
 50
270.0977744151
 51
90.0977744143
  0
ARC
  5
31B
100
AcDbEntity
  8
0
100
AcDbCircle
 62
7
  6
CONTINUOUS
 10
253.9719941206
 20
285.0831862159
 40
1.5
100
AcDbArc
 50
269.9022255851
 51
89.902225585
  0
ARC
  5
31C
100
AcDbEntity
  8
0
100
AcDbCircle
 62
7
  6
CONTINUOUS
 10
297.2119941206
 20
298.9731947484
 40
0.5
100
AcDbArc
 50
90.0
 51
180.0
  0
SPLINE
  5
31D
100
AcDbEntity
  8
0
100
AcDbSpline
 62
7
  6
CONTINUOUS
 70
0
 71
3
 72
12
 73
8
 74
0
 42
0.0000001
 43
0.0000001
 44
0.0000000001
 40
0.0
 40
0.0
 40
0.0
 40
0.0
 40
0.297756206
 40
0.5517470059
 40
0.6641853909
 40
0.7731840961
 40
1.0
 40
1.0
 40
1.0
 40
1.0
 10
119.4619941206
 20
231.8801980849
 30
0.0
 10
119.7617415356
 20
231.9087295647
 30
0.0
 10
120.3139987025
 20
232.0227634385
 30
0.0
 10
120.9168772949
 20
232.3610998278
 30
0.0
 10
121.2272285443
 20
232.7349310071
 30
0.0
 10
121.4236092
 20
233.1480286799
 30
0.0
 10
121.4619941206
 20
233.4945644781
 30
0.0
 10
121.4619941206
 20
233.7239292236
 30
0.0
  0
SPLINE
  5
31E
100
AcDbEntity
  8
0
100
AcDbSpline
 62
7
  6
CONTINUOUS
 70
0
 71
3
 72
12
 73
8
 74
0
 42
0.0000001
 43
0.0000001
 44
0.0000000001
 40
0.0
 40
0.0
 40
0.0
 40
0.0
 40
0.297756206
 40
0.5517470059
 40
0.6641853909
 40
0.7731840961
 40
1.0
 40
1.0
 40
1.0
 40
1.0
 10
119.4619941206
 20
271.8801980849
 30
0.0
 10
119.7617415356
 20
271.9087295647
 30
0.0
 10
120.3139987025
 20
272.0227634385
 30
0.0
 10
120.9168772949
 20
272.3610998278
 30
0.0
 10
121.2272285443
 20
272.7349310071
 30
0.0
 10
121.4236092
 20
273.1480286799
 30
0.0
 10
121.4619941206
 20
273.4945644781
 30
0.0
 10
121.4619941206
 20
273.7239292236
 30
0.0
  0
SPLINE
  5
31F
100
AcDbEntity
  8
0
100
AcDbSpline
 62
7
  6
CONTINUOUS
 70
0
 71
3
 72
12
 73
8
 74
0
 42
0.0000001
 43
0.0000001
 44
0.0000000001
 40
0.0
 40
0.0
 40
0.0
 40
0.0
 40
0.2268162796
 40
0.3358159928
 40
0.4482558457
 40
0.7022495934
 40
1.0
 40
1.0
 40
1.0
 40
1.0
 10
121.4619941206
 20
244.7224602731
 30
0.0
 10
121.4619941206
 20
244.9518253887
 30
0.0
 10
121.4236085922
 20
245.2983624557
 30
0.0
 10
121.227226456
 20
245.7114628352
 30
0.0
 10
120.9168684956
 20
246.08529571
 30
0.0
 10
120.3139902393
 20
246.4236293458
 30
0.0
 10
119.7617356845
 20
246.537660489
 30
0.0
 10
119.4619941206
 20
246.5661914118
 30
0.0
  0
SPLINE
  5
320
100
AcDbEntity
  8
0
100
AcDbSpline
 62
7
  6
CONTINUOUS
 70
0
 71
3
 72
12
 73
8
 74
0
 42
0.0000001
 43
0.0000001
 44
0.0000000001
 40
0.0
 40
0.0
 40
0.0
 40
0.0
 40
0.2268162796
 40
0.3358159928
 40
0.4482558457
 40
0.7022495934
 40
1.0
 40
1.0
 40
1.0
 40
1.0
 10
121.4619941206
 20
284.7224602731
 30
0.0
 10
121.4619941206
 20
284.9518253887
 30
0.0
 10
121.4236085922
 20
285.2983624557
 30
0.0
 10
121.227226456
 20
285.7114628352
 30
0.0
 10
120.9168684956
 20
286.08529571
 30
0.0
 10
120.3139902393
 20
286.4236293458
 30
0.0
 10
119.7617356845
 20
286.537660489
 30
0.0
 10
119.4619941206
 20
286.5661914118
 30
0.0
  0
SPLINE
  5
321
100
AcDbEntity
  8
0
100
AcDbSpline
 62
7
  6
CONTINUOUS
 70
0
 71
3
 72
9
 73
5
 74
0
 42
0.0000001
 43
0.0000001
 44
0.0000000001
 40
0.0
 40
0.0
 40
0.0
 40
0.0
 40
0.2552337729
 40
1.0
 40
1.0
 40
1.0
 40
1.0
 10
119.4619941206
 20
213.7231947484
 30
0.0
 10
119.2785049041
 20
213.5796487347
 30
0.0
 10
118.5895315814
 20
212.9785451034
 30
0.0
 10
118.009634639
 20
212.2634866933
 30
0.0
 10
117.6144494134
 20
211.7103616666
 30
0.0
  0
SPLINE
  5
322
100
AcDbEntity
  8
0
100
AcDbSpline
 62
7
  6
CONTINUOUS
 70
0
 71
3
 72
10
 73
6
 74
0
 42
0.0000001
 43
0.0000001
 44
0.0000000001
 40
0.0
 40
0.0
 40
0.0
 40
0.0
 40
0.5481012547
 40
0.7906945118
 40
1.0
 40
1.0
 40
1.0
 40
1.0
 10
119.4619941206
 20
213.7231947484
 30
0.0
 10
119.7826251536
 20
213.5496927014
 30
0.0
 10
120.2465772824
 20
213.3007101402
 30
0.0
 10
120.8037951337
 20
212.9368479592
 30
0.0
 10
121.0382444762
 20
212.7466720883
 30
0.0
 10
121.1371508099
 20
212.648697224
 30
0.0
  0
SPLINE
  5
323
100
AcDbEntity
  8
0
100
AcDbSpline
 62
7
  6
CONTINUOUS
 70
0
 71
3
 72
14
 73
10
 74
0
 42
0.0000001
 43
0.0000001
 44
0.0000000001
 40
0.0
 40
0.0
 40
0.0
 40
0.0
 40
0.0803124136
 40
0.1613509826
 40
0.2555730186
 40
0.3697657161
 40
0.505018442
 40
0.6586880171
 40
1.0
 40
1.0
 40
1.0
 40
1.0
 10
123.9619941206
 20
233.7239292236
 30
0.0
 10
123.9619941206
 20
233.5834205267
 30
0.0
 10
123.9157558152
 20
233.296057418
 30
0.0
 10
123.6580005867
 20
232.9160624809
 30
0.0
 10
123.2419816151
 20
232.6159877565
 30
0.0
 10
122.6886020765
 20
232.3745732128
 30
0.0
 10
122.0085616138
 20
232.1821607857
 30
0.0
 10
120.9238349345
 20
231.9795756047
 30
0.0
 10
120.0585948636
 20
231.9054369674
 30
0.0
 10
119.4619941206
 20
231.8801980849
 30
0.0
  0
SPLINE
  5
324
100
AcDbEntity
  8
0
100
AcDbSpline
 62
7
  6
CONTINUOUS
 70
0
 71
3
 72
14
 73
10
 74
0
 42
0.0000001
 43
0.0000001
 44
0.0000000001
 40
0.0
 40
0.0
 40
0.0
 40
0.0
 40
0.3413130613
 40
0.4949822146
 40
0.6302345216
 40
0.7444268886
 40
0.8386487624
 40
0.9196874265
 40
1.0
 40
1.0
 40
1.0
 40
1.0
 10
119.4619941206
 20
246.5661914118
 30
0.0
 10
120.0585967345
 20
246.5409524502
 30
0.0
 10
120.9238379635
 20
246.4668136674
 30
0.0
 10
122.0085648973
 20
246.2642278167
 30
0.0
 10
122.6886033584
 20
246.0718158432
 30
0.0
 10
123.2419812694
 20
245.8304017612
 30
0.0
 10
123.657999991
 20
245.5303278183
 30
0.0
 10
123.9157550623
 20
245.1503326766
 30
0.0
 10
123.9619941206
 20
244.8629692465
 30
0.0
 10
123.9619941206
 20
244.7224602731
 30
0.0
  0
SPLINE
  5
325
100
AcDbEntity
  8
0
100
AcDbSpline
 62
7
  6
CONTINUOUS
 70
0
 71
3
 72
14
 73
10
 74
0
 42
0.0000001
 43
0.0000001
 44
0.0000000001
 40
0.0
 40
0.0
 40
0.0
 40
0.0
 40
0.0686885172
 40
0.1655889131
 40
0.2847287903
 40
0.4182958072
 40
0.5599783477
 40
0.7055435918
 40
1.0
 40
1.0
 40
1.0
 40
1.0
 10
115.7492291111
 20
211.7231947484
 30
0.0
 10
115.8462281563
 20
211.7231947484
 30
0.0
 10
116.0733095111
 20
211.8099811731
 30
0.0
 10
116.4135080978
 20
212.0186916605
 30
0.0
 10
116.8203772698
 20
212.3005647538
 30
0.0
 10
117.2785777832
 20
212.616467596
 30
0.0
 10
117.7798913589
 20
212.9362962364
 30
0.0
 10
118.4965586273
 20
213.3383193082
 30
0.0
 10
119.0692383997
 20
213.5866356654
 30
0.0
 10
119.4619941206
 20
213.7231947484
 30
0.0
  0
SPLINE
  5
326
100
AcDbEntity
  8
0
100
AcDbSpline
 62
7
  6
CONTINUOUS
 70
0
 71
3
 72
14
 73
10
 74
0
 42
0.0000001
 43
0.0000001
 44
0.0000000001
 40
0.0
 40
0.0
 40
0.0
 40
0.0
 40
0.3413130613
 40
0.4949822146
 40
0.6302345216
 40
0.7444268886
 40
0.8386487624
 40
0.9196874265
 40
1.0
 40
1.0
 40
1.0
 40
1.0
 10
119.4619941206
 20
286.5661914118
 30
0.0
 10
120.0585967345
 20
286.5409524502
 30
0.0
 10
120.9238379635
 20
286.4668136674
 30
0.0
 10
122.0085648973
 20
286.2642278167
 30
0.0
 10
122.6886033584
 20
286.0718158432
 30
0.0
 10
123.2419812694
 20
285.8304017612
 30
0.0
 10
123.657999991
 20
285.5303278183
 30
0.0
 10
123.9157550623
 20
285.1503326766
 30
0.0
 10
123.9619941206
 20
284.8629692465
 30
0.0
 10
123.9619941206
 20
284.7224602731
 30
0.0
  0
SPLINE
  5
327
100
AcDbEntity
  8
0
100
AcDbSpline
 62
7
  6
CONTINUOUS
 70
0
 71
3
 72
14
 73
10
 74
0
 42
0.0000001
 43
0.0000001
 44
0.0000000001
 40
0.0
 40
0.0
 40
0.0
 40
0.0
 40
0.0803124139
 40
0.1613509837
 40
0.2555730205
 40
0.3697657194
 40
0.505018446
 40
0.6586880198
 40
1.0
 40
1.0
 40
1.0
 40
1.0
 10
123.9619941206
 20
273.7239292236
 30
0.0
 10
123.9619941206
 20
273.5834205263
 30
0.0
 10
123.915755814
 20
273.2960574162
 30
0.0
 10
123.6580005837
 20
272.916062476
 30
0.0
 10
123.2419816038
 20
272.6159877551
 30
0.0
 10
122.6886020656
 20
272.3745731981
 30
0.0
 10
122.0085615932
 20
272.1821607973
 30
0.0
 10
120.9238349201
 20
271.9795756282
 30
0.0
 10
120.0585948586
 20
271.9054369672
 30
0.0
 10
119.4619941206
 20
271.8801980849
 30
0.0
  0
SPLINE
  5
328
100
AcDbEntity
  8
0
100
AcDbSpline
 62
7
  6
CONTINUOUS
 70
0
 71
3
 72
12
 73
8
 74
0
 42
0.0000001
 43
0.0000001
 44
0.0000000001
 40
0.0
 40
0.0
 40
0.0
 40
0.0
 40
0.297756206
 40
0.5517470059
 40
0.6641853909
 40
0.7731840961
 40
1.0
 40
1.0
 40
1.0
 40
1.0
 10
253.4619941206
 20
286.5661914118
 30
0.0
 10
253.1622467057
 20
286.5376599321
 30
0.0
 10
252.6099895388
 20
286.4236260583
 30
0.0
 10
252.0071109464
 20
286.0852896689
 30
0.0
 10
251.696759697
 20
285.7114584896
 30
0.0
 10
251.5003790412
 20
285.2983608168
 30
0.0
 10
251.4619941206
 20
284.9518250186
 30
0.0
 10
251.4619941206
 20
284.7224602731
 30
0.0
  0
SPLINE
  5
329
100
AcDbEntity
  8
0
100
AcDbSpline
 62
7
  6
CONTINUOUS
 70
0
 71
3
 72
12
 73
8
 74
0
 42
0.0000001
 43
0.0000001
 44
0.0000000001
 40
0.0
 40
0.0
 40
0.0
 40
0.0
 40
0.297756206
 40
0.5517470059
 40
0.6641853909
 40
0.7731840961
 40
1.0
 40
1.0
 40
1.0
 40
1.0
 10
253.4619941206
 20
246.5661914118
 30
0.0
 10
253.1622467057
 20
246.5376599321
 30
0.0
 10
252.6099895388
 20
246.4236260583
 30
0.0
 10
252.0071109464
 20
246.0852896689
 30
0.0
 10
251.696759697
 20
245.7114584896
 30
0.0
 10
251.5003790412
 20
245.2983608168
 30
0.0
 10
251.4619941206
 20
244.9518250186
 30
0.0
 10
251.4619941206
 20
244.7224602731
 30
0.0
  0
SPLINE
  5
32A
100
AcDbEntity
  8
0
100
AcDbSpline
 62
7
  6
CONTINUOUS
 70
0
 71
3
 72
12
 73
8
 74
0
 42
0.0000001
 43
0.0000001
 44
0.0000000001
 40
0.0
 40
0.0
 40
0.0
 40
0.0
 40
0.2268162796
 40
0.3358159928
 40
0.4482558457
 40
0.7022495934
 40
1.0
 40
1.0
 40
1.0
 40
1.0
 10
251.4619941206
 20
273.7239292236
 30
0.0
 10
251.4619941206
 20
273.494564108
 30
0.0
 10
251.5003796491
 20
273.148027041
 30
0.0
 10
251.6967617853
 20
272.7349266615
 30
0.0
 10
252.0071197457
 20
272.3610937867
 30
0.0
 10
252.6099980019
 20
272.022760151
 30
0.0
 10
253.1622525568
 20
271.9087290077
 30
0.0
 10
253.4619941206
 20
271.8801980849
 30
0.0
  0
SPLINE
  5
32B
100
AcDbEntity
  8
0
100
AcDbSpline
 62
7
  6
CONTINUOUS
 70
0
 71
3
 72
12
 73
8
 74
0
 42
0.0000001
 43
0.0000001
 44
0.0000000001
 40
0.0
 40
0.0
 40
0.0
 40
0.0
 40
0.2268162796
 40
0.3358159928
 40
0.4482558457
 40
0.7022495934
 40
1.0
 40
1.0
 40
1.0
 40
1.0
 10
251.4619941206
 20
233.7239292236
 30
0.0
 10
251.4619941206
 20
233.494564108
 30
0.0
 10
251.5003796491
 20
233.148027041
 30
0.0
 10
251.6967617853
 20
232.7349266615
 30
0.0
 10
252.0071197457
 20
232.3610937867
 30
0.0
 10
252.6099980019
 20
232.022760151
 30
0.0
 10
253.1622525568
 20
231.9087290077
 30
0.0
 10
253.4619941206
 20
231.8801980849
 30
0.0
  0
SPLINE
  5
32C
100
AcDbEntity
  8
0
100
AcDbSpline
 62
7
  6
CONTINUOUS
 70
0
 71
3
 72
9
 73
5
 74
0
 42
0.0000001
 43
0.0000001
 44
0.0000000001
 40
0.0
 40
0.0
 40
0.0
 40
0.0
 40
0.2552337729
 40
1.0
 40
1.0
 40
1.0
 40
1.0
 10
253.4619941206
 20
304.7231947484
 30
0.0
 10
253.6454833372
 20
304.866740762
 30
0.0
 10
254.3344566599
 20
305.4678443933
 30
0.0
 10
254.9143536023
 20
306.1829028035
 30
0.0
 10
255.3095388278
 20
306.7360278301
 30
0.0
  0
SPLINE
  5
32D
100
AcDbEntity
  8
0
100
AcDbSpline
 62
7
  6
CONTINUOUS
 70
0
 71
3
 72
10
 73
6
 74
0
 42
0.0000001
 43
0.0000001
 44
0.0000000001
 40
0.0
 40
0.0
 40
0.0
 40
0.0
 40
0.5481012547
 40
0.7906945118
 40
1.0
 40
1.0
 40
1.0
 40
1.0
 10
253.4619941206
 20
304.7231947484
 30
0.0
 10
253.1413630877
 20
304.8966967953
 30
0.0
 10
252.6774109589
 20
305.1456793565
 30
0.0
 10
252.1201931076
 20
305.5095415375
 30
0.0
 10
251.8857437651
 20
305.6997174084
 30
0.0
 10
251.7868374313
 20
305.7976922728
 30
0.0
  0
SPLINE
  5
32E
100
AcDbEntity
  8
0
100
AcDbSpline
 62
7
  6
CONTINUOUS
 70
0
 71
3
 72
14
 73
10
 74
0
 42
0.0000001
 43
0.0000001
 44
0.0000000001
 40
0.0
 40
0.0
 40
0.0
 40
0.0
 40
0.0803124136
 40
0.1613509826
 40
0.2555730186
 40
0.3697657161
 40
0.505018442
 40
0.6586880171
 40
1.0
 40
1.0
 40
1.0
 40
1.0
 10
248.9619941206
 20
284.7224602731
 30
0.0
 10
248.9619941206
 20
284.86296897
 30
0.0
 10
249.0082324261
 20
285.1503320787
 30
0.0
 10
249.2659876545
 20
285.5303270158
 30
0.0
 10
249.6820066262
 20
285.8304017402
 30
0.0
 10
250.2353861648
 20
286.071816284
 30
0.0
 10
250.9154266275
 20
286.264228711
 30
0.0
 10
252.0001533067
 20
286.466813892
 30
0.0
 10
252.8653933777
 20
286.5409525293
 30
0.0
 10
253.4619941206
 20
286.5661914118
 30
0.0
  0
SPLINE
  5
32F
100
AcDbEntity
  8
0
100
AcDbSpline
 62
7
  6
CONTINUOUS
 70
0
 71
3
 72
14
 73
10
 74
0
 42
0.0000001
 43
0.0000001
 44
0.0000000001
 40
0.0
 40
0.0
 40
0.0
 40
0.0
 40
0.3413130613
 40
0.4949822146
 40
0.6302345216
 40
0.7444268886
 40
0.8386487624
 40
0.9196874265
 40
1.0
 40
1.0
 40
1.0
 40
1.0
 10
253.4619941206
 20
271.8801980849
 30
0.0
 10
252.8653915068
 20
271.9054370466
 30
0.0
 10
252.0001502778
 20
271.9795758293
 30
0.0
 10
250.915423344
 20
272.18216168
 30
0.0
 10
250.2353848829
 20
272.3745736536
 30
0.0
 10
249.6820069719
 20
272.6159877356
 30
0.0
 10
249.2659882502
 20
272.9160616784
 30
0.0
 10
249.0082331789
 20
273.2960568201
 30
0.0
 10
248.9619941206
 20
273.5834202502
 30
0.0
 10
248.9619941206
 20
273.7239292236
 30
0.0
  0
SPLINE
  5
330
100
AcDbEntity
  8
0
100
AcDbSpline
 62
7
  6
CONTINUOUS
 70
0
 71
3
 72
14
 73
10
 74
0
 42
0.0000001
 43
0.0000001
 44
0.0000000001
 40
0.0
 40
0.0
 40
0.0
 40
0.0
 40
0.0686885172
 40
0.1655889131
 40
0.2847287903
 40
0.4182958072
 40
0.5599783477
 40
0.7055435918
 40
1.0
 40
1.0
 40
1.0
 40
1.0
 10
257.1747591301
 20
306.7231947484
 30
0.0
 10
257.077760085
 20
306.7231947484
 30
0.0
 10
256.8506787302
 20
306.6364083236
 30
0.0
 10
256.5104801435
 20
306.4276978363
 30
0.0
 10
256.1036109714
 20
306.1458247429
 30
0.0
 10
255.6454104581
 20
305.8299219007
 30
0.0
 10
255.1440968823
 20
305.5100932603
 30
0.0
 10
254.427429614
 20
305.1080701885
 30
0.0
 10
253.8547498416
 20
304.8597538313
 30
0.0
 10
253.4619941206
 20
304.7231947484
 30
0.0
  0
SPLINE
  5
331
100
AcDbEntity
  8
0
100
AcDbSpline
 62
7
  6
CONTINUOUS
 70
0
 71
3
 72
14
 73
10
 74
0
 42
0.0000001
 43
0.0000001
 44
0.0000000001
 40
0.0
 40
0.0
 40
0.0
 40
0.0
 40
0.3413130613
 40
0.4949822146
 40
0.6302345216
 40
0.7444268886
 40
0.8386487624
 40
0.9196874265
 40
1.0
 40
1.0
 40
1.0
 40
1.0
 10
253.4619941206
 20
231.8801980849
 30
0.0
 10
252.8653915068
 20
231.9054370466
 30
0.0
 10
252.0001502778
 20
231.9795758293
 30
0.0
 10
250.915423344
 20
232.18216168
 30
0.0
 10
250.2353848829
 20
232.3745736536
 30
0.0
 10
249.6820069719
 20
232.6159877356
 30
0.0
 10
249.2659882502
 20
232.9160616784
 30
0.0
 10
249.0082331789
 20
233.2960568201
 30
0.0
 10
248.9619941206
 20
233.5834202502
 30
0.0
 10
248.9619941206
 20
233.7239292236
 30
0.0
  0
SPLINE
  5
332
100
AcDbEntity
  8
0
100
AcDbSpline
 62
7
  6
CONTINUOUS
 70
0
 71
3
 72
14
 73
10
 74
0
 42
0.0000001
 43
0.0000001
 44
0.0000000001
 40
0.0
 40
0.0
 40
0.0
 40
0.0
 40
0.0803124139
 40
0.1613509837
 40
0.2555730205
 40
0.3697657194
 40
0.505018446
 40
0.6586880198
 40
1.0
 40
1.0
 40
1.0
 40
1.0
 10
248.9619941206
 20
244.7224602731
 30
0.0
 10
248.9619941206
 20
244.8629689704
 30
0.0
 10
249.0082324273
 20
245.1503320805
 30
0.0
 10
249.2659876576
 20
245.5303270207
 30
0.0
 10
249.6820066374
 20
245.8304017416
 30
0.0
 10
250.2353861756
 20
246.0718162986
 30
0.0
 10
250.9154266481
 20
246.2642286994
 30
0.0
 10
252.0001533212
 20
246.4668138685
 30
0.0
 10
252.8653933827
 20
246.5409525295
 30
0.0
 10
253.4619941206
 20
246.5661914118
 30
0.0
  0
ENDSEC
  0
SECTION
  2
OBJECTS
  0
DICTIONARY
  5
C
100
AcDbDictionary
280
0
281
1
  3
ACAD_GROUP
350
D
  3
ACAD_MLINESTYLE
350
17
  3
ACAD_LAYOUT
350
1A
  3
ACAD_PLOTSETTINGS
350
19
  3
ACAD_PLOTSTYLENAME
350
E
  0
DICTIONARY
  5
D
102
{ACAD_REACTORS
330
C
102
}
100
AcDbDictionary
280
0
281
1
  0
ACDBDICTIONARYWDFLT
  5
E
102
{ACAD_REACTORS
330
C
102
}
100
AcDbDictionary
281
1
  3
Normal
350
F
100
AcDbDictionaryWithDefault
340
F
  0
DICTIONARY
  5
17
102
{ACAD_REACTORS
330
C
102
}
100
AcDbDictionary
280
0
281
1
  3
Standard
350
18
  0
DICTIONARY
  5
19
102
{ACAD_REACTORS
330
C
102
}
100
AcDbDictionary
281
1
  0
DICTIONARY
  5
1A
102
{ACAD_REACTORS
330
C
102
}
100
AcDbDictionary
281
1
  3
Model
350
333
  3
Layout1
350
334
  0
ACDBPLACEHOLDER
  5
F
102
{ACAD_REACTORS
330
E
102
}
  0
MLINESTYLE
  5
18
102
{ACAD_REACTORS
330
17
102
}
100
AcDbMlineStyle
  2
STANDARD
 70
0
  3

 62
256
 51
90.0
 52
90.0
 71
2
 49
0.5
 62
256
  6
BYLAYER
 49
-0.5
 62
256
  6
BYLAYER
  0
LAYOUT
  5
333
102
{ACAD_REACTORS
330
1A
102
}
100
AcDbPlotSettings
  1

  2
none_device
  4

  6

 40
0.0
 41
0.0
 42
0.0
 43
0.0
 44
210.0
 45
297.0
 46
0.0
 47
0.0
 48
0.0
 49
0.0
140
0.0
141
0.0
142
1.0
143
1.0
 70
1024
 72
1
 73
0
 74
0
  7

 75
0
147
1.0
148
0.0
149
0.0
100
AcDbLayout
  1
Model
 70
0
 71
0
 10
0.0
 20
0.0
 11
210.0
 21
297.0
 12
0.0
 22
0.0
 32
0.0
 14
0.0
 24
0.0
 34
0.0
 15
0.0
 25
0.0
 35
0.0
146
0.0
 13
0.0
 23
0.0
 33
0.0
 16
1.0
 26
0.0
 36
0.0
 17
0.0
 27
1.0
 37
0.0
 76
0
330
210
345
0
346
0
  0
LAYOUT
  5
334
102
{ACAD_REACTORS
330
1A
102
}
100
AcDbPlotSettings
  1

  2
none_device
  4

  6

 40
0.0
 41
0.0
 42
0.0
 43
0.0
 44
210.0
 45
297.0
 46
0.0
 47
0.0
 48
0.0
 49
0.0
140
0.0
141
0.0
142
1.0
143
1.0
 70
0
 72
1
 73
0
 74
0
  7

 75
0
147
1.0
148
0.0
149
0.0
100
AcDbLayout
  1
Layout1
 70
0
 71
1
 10
0.0
 20
0.0
 11
210.0
 21
297.0
 12
0.0
 22
0.0
 32
0.0
 14
0.0
 24
0.0
 34
0.0
 15
0.0
 25
0.0
 35
0.0
146
0.0
 13
0.0
 23
0.0
 33
0.0
 16
1.0
 26
0.0
 36
0.0
 17
0.0
 27
1.0
 37
0.0
 76
0
330
211
345
0
346
0
  0
ENDSEC
  0
EOF
