999
DXF file: C:\Users\sesa63760\Dev\_Creo\CAD\MCADID0003269_3D-CAD\drw0001_1.dxf
999
Pro/ENGINEER 2019471 by Parametric Technology Corporation
  0
SECTION
  2
HEADER
  9
$ACADVER
  1
AC1024
  9
$DWGCODEPAGE
  3
ANSI_1252
  9
$EXTMAX
 10
169.5805065404
 20
239.8352878215
 30
0.0
  9
$EXTMIN
 10
0.0
 20
0.0
 30
0.0
  9
$LIMMIN
 10
0.0
 20
0.0
  9
$LIMMAX
 10
169.5805065404
 20
239.8352878215
  9
$VIEWCTR
 10
84.7902532702
 20
119.9176439107
  9
$VIEWSIZE
 40
239.8352878215
  9
$CLAYER
  8
0
  9
$LTSCALE
 40
15.6337076506
  9
$CELTYPE
  6
BYLAYER
  9
$DIMSCALE
 40
1.0
  9
$DIMASZ
 40
2.0188155541
  9
$DIMEXO
 40
1.0
  9
$DIMDLI
 40
10.8014707404
  9
$DIMEXE
 40
1.0
  9
$DIMCEN
 40
2.5582430701
  9
$DIMLFAC
 40
1.0
  9
$DIMBLK
  1
_FILLED
  9
$DIMALT
 70
0
  9
$DIMALTF
 40
0.0393700787
  9
$DIMTXT
 40
2.8263417757
  9
$DIMTOL
 70
1
  9
$DIMLIM
 70
0
  9
$DIMTFAC
 40
1.0
  9
$DIMTP
 40
0.01
  9
$DIMTM
 40
0.01
  9
$DIMGAP
 40
0.625
  9
$DIMDSEP
 70
46
  9
$AUNITS
 70
0
  9
$PDMODE
 70
3
  9
$PDSIZE
 40
0.3125
  9
$HANDSEED
  5
2BB
  9
$TILEMODE
 70
1
  9
$MEASUREMENT
 70
1
  9
$INSUNITS
 70
4
  0
ENDSEC
  0
SECTION
  2
CLASSES
  0
CLASS
  1
ACDBDICTIONARYWDFLT
  2
AcDbDictionaryWithDefault
  3
AutoCAD 2000
 90
0
 91
1
280
0
281
0
  0
CLASS
  1
ACDBPLACEHOLDER
  2
AcDbPlaceHolder
  3
AutoCAD 2000
 90
0
 91
1
280
0
281
0
  0
CLASS
  1
LAYOUT
  2
AcDbLayout
  3
AutoCAD 2000
 90
0
 91
0
280
0
281
0
  0
ENDSEC
  0
SECTION
  2
TABLES
  0
TABLE
  2
VPORT
  5
8
100
AcDbSymbolTable
 70
2
  0
VPORT
  5
1F4
100
AcDbSymbolTableRecord
100
AcDbViewportTableRecord
  2
*ACTIVE
 70
0
 10
0.0
 20
0.0
 11
1.0
 21
1.0
 12
84.7902532702
 22
119.9176439107
 13
0.0
 23
0.0
 14
1.0
 24
1.0
 15
0.0
 25
0.0
 16
0.0
 26
0.0
 36
1.0
 17
0.0
 27
0.0
 37
0.0
 40
239.8352878215
 41
0.7070707071
 42
50.0
 43
0.0
 44
0.0
 50
0.0
 51
0.0
 71
0
 72
100
 73
1
 74
1
 75
0
 76
0
 77
0
 78
0
  0
ENDTAB
  0
TABLE
  2
LTYPE
  5
5
100
AcDbSymbolTable
 70
6
  0
LTYPE
  5
14
100
AcDbSymbolTableRecord
100
AcDbLinetypeTableRecord
  2
BYBLOCK
 70
0
  3

 72
65
 73
0
 40
0.0
  0
LTYPE
  5
15
100
AcDbSymbolTableRecord
100
AcDbLinetypeTableRecord
  2
BYLAYER
 70
0
  3

 72
65
 73
0
 40
0.0
  0
LTYPE
  5
16
100
AcDbSymbolTableRecord
100
AcDbLinetypeTableRecord
  2
CONTINUOUS
 70
64
  3
Solid line
 72
65
 73
0
 40
0.0
  0
LTYPE
  5
1F5
100
AcDbSymbolTableRecord
100
AcDbLinetypeTableRecord
  2
CENTER
 70
64
  3
____ _ ____ _ ____ _ ____ _ ____ _ ____ _ ____
 72
65
 73
4
 40
0.6
 49
0.375
 74
0
 49
-0.075
 74
0
 49
0.075
 74
0
 49
-0.075
 74
0
  0
LTYPE
  5
1F6
100
AcDbSymbolTableRecord
100
AcDbLinetypeTableRecord
  2
HIDDEN
 70
64
  3
- - - - - - - - - - - - - - - - - - - -
 72
65
 73
2
 40
0.2
 49
0.1
 74
0
 49
-0.1
 74
0
  0
LTYPE
  5
1F7
100
AcDbSymbolTableRecord
100
AcDbLinetypeTableRecord
  2
PHANTOM
 70
64
  3
_____ _ _ _____ _ _ _____ _ _ _____
 72
65
 73
6
 40
0.8
 49
0.45
 74
0
 49
-0.05
 74
0
 49
0.1
 74
0
 49
-0.05
 74
0
 49
0.1
 74
0
 49
-0.05
 74
0
  0
LTYPE
  5
1F8
100
AcDbSymbolTableRecord
100
AcDbLinetypeTableRecord
  2
DOT
 70
64
  3
. . . . . . . . . . . . . . . . . . . .
 72
65
 73
2
 40
0.2
 49
0.1
 74
0
 49
-0.1
 74
0
  0
LTYPE
  5
1F9
100
AcDbSymbolTableRecord
100
AcDbLinetypeTableRecord
  2
DASHED
 70
64
  3
- - - - - - - - - - - - - - - - - - - -
 72
65
 73
2
 40
0.2
 49
0.1
 74
0
 49
-0.1
 74
0
  0
ENDTAB
  0
TABLE
  2
LAYER
  5
2
100
AcDbSymbolTable
 70
36
  0
LAYER
  5
10
100
AcDbSymbolTableRecord
100
AcDbLayerTableRecord
  2
0
 70
0
 62
7
  6
CONTINUOUS
370
-3
390
F
  0
LAYER
  5
1FA
100
AcDbSymbolTableRecord
100
AcDbLayerTableRecord
  2
DEFAULT_1
 70
0
 62
7
  6
CENTER
370
-3
390
F
  0
LAYER
  5
1FB
100
AcDbSymbolTableRecord
100
AcDbLayerTableRecord
  2
DEFAULT_2
 70
0
 62
7
  6
HIDDEN
370
-3
390
F
  0
LAYER
  5
1FC
100
AcDbSymbolTableRecord
100
AcDbLayerTableRecord
  2
DEFAULT_3
 70
0
 62
7
  6
PHANTOM
370
-3
390
F
  0
LAYER
  5
1FD
100
AcDbSymbolTableRecord
100
AcDbLayerTableRecord
  2
00_COMPONENTS
 70
0
 62
7
  6
CONTINUOUS
370
-3
390
F
  0
LAYER
  5
1FE
100
AcDbSymbolTableRecord
100
AcDbLayerTableRecord
  2
01_1_DEFAULT_DATUMS
 70
0
 62
7
  6
CONTINUOUS
370
-3
390
F
  0
LAYER
  5
1FF
100
AcDbSymbolTableRecord
100
AcDbLayerTableRecord
  2
01_PLANES
 70
0
 62
7
  6
CONTINUOUS
370
-3
390
F
  0
LAYER
  5
200
100
AcDbSymbolTableRecord
100
AcDbLayerTableRecord
  2
02_COORD_SYS
 70
0
 62
7
  6
CONTINUOUS
370
-3
390
F
  0
LAYER
  5
201
100
AcDbSymbolTableRecord
100
AcDbLayerTableRecord
  2
03_AXES
 70
0
 62
7
  6
CONTINUOUS
370
-3
390
F
  0
LAYER
  5
202
100
AcDbSymbolTableRecord
100
AcDbLayerTableRecord
  2
04_POINTS
 70
0
 62
7
  6
CONTINUOUS
370
-3
390
F
  0
LAYER
  5
203
100
AcDbSymbolTableRecord
100
AcDbLayerTableRecord
  2
05_CURVES
 70
0
 62
7
  6
CONTINUOUS
370
-3
390
F
  0
LAYER
  5
204
100
AcDbSymbolTableRecord
100
AcDbLayerTableRecord
  2
06_SURFS
 70
0
 62
7
  6
CONTINUOUS
370
-3
390
F
  0
LAYER
  5
205
100
AcDbSymbolTableRecord
100
AcDbLayerTableRecord
  2
07_COSMETICS
 70
0
 62
7
  6
CONTINUOUS
370
-3
390
F
  0
LAYER
  5
206
100
AcDbSymbolTableRecord
100
AcDbLayerTableRecord
  2
10_NOTES
 70
0
 62
7
  6
CONTINUOUS
370
-3
390
F
  0
LAYER
  5
207
100
AcDbSymbolTableRecord
100
AcDbLayerTableRecord
  2
11_NOTES_PUB
 70
0
 62
7
  6
CONTINUOUS
370
-3
390
F
  0
LAYER
  5
208
100
AcDbSymbolTableRecord
100
AcDbLayerTableRecord
  2
13_REF_GTOL
 70
0
 62
7
  6
CONTINUOUS
370
-3
390
F
  0
LAYER
  5
209
100
AcDbSymbolTableRecord
100
AcDbLayerTableRecord
  2
16_MISC
 70
0
 62
7
  6
CONTINUOUS
370
-3
390
F
  0
LAYER
  5
20A
100
AcDbSymbolTableRecord
100
AcDbLayerTableRecord
  2
17_NO_PRINT
 70
0
 62
7
  6
CONTINUOUS
370
-3
390
F
  0
LAYER
  5
20B
100
AcDbSymbolTableRecord
100
AcDbLayerTableRecord
  2
18_DATUM_CAMS_JOINTS
 70
0
 62
7
  6
CONTINUOUS
370
-3
390
F
  0
LAYER
  5
20C
100
AcDbSymbolTableRecord
100
AcDbLayerTableRecord
  2
19_DATUM_FUNCTIONAL
 70
0
 62
7
  6
CONTINUOUS
370
-3
390
F
  0
LAYER
  5
20D
100
AcDbSymbolTableRecord
100
AcDbLayerTableRecord
  2
20_DATUM_KINEMATIC_SCHEME
 70
0
 62
7
  6
CONTINUOUS
370
-3
390
F
  0
ENDTAB
  0
TABLE
  2
STYLE
  5
3
100
AcDbSymbolTable
 70
1
  0
STYLE
  5
11
100
AcDbSymbolTableRecord
100
AcDbTextStyleTableRecord
  2
STANDARD
 70
0
 40
0.0
 41
1.0
 50
0.0
 71
0
 42
0.2
  3
ARIAL.TTF
  4

  0
STYLE
  5
20E
100
AcDbSymbolTableRecord
100
AcDbTextStyleTableRecord
  2
TEXTSTYLE_1
 70
0
 40
0.0
 41
0.8
 50
0.0
 71
0
 42
0.2
  3
gdt
  4

  0
ENDTAB
  0
TABLE
  2
VIEW
  5
6
100
AcDbSymbolTable
 70
0
  0
ENDTAB
  0
TABLE
  2
UCS
  5
7
100
AcDbSymbolTable
 70
0
  0
ENDTAB
  0
TABLE
  2
APPID
  5
9
100
AcDbSymbolTable
 70
1
  0
APPID
  5
20F
100
AcDbSymbolTableRecord
100
AcDbRegAppTableRecord
  2
ACAD
 70
0
  0
ENDTAB
  0
TABLE
  2
BLOCK_RECORD
  5
1
100
AcDbSymbolTable
 70
0
  0
BLOCK_RECORD
  5
210
100
AcDbSymbolTableRecord
100
AcDbBlockTableRecord
  2
*Model_Space
  0
BLOCK_RECORD
  5
211
100
AcDbSymbolTableRecord
100
AcDbBlockTableRecord
  2
*Paper_Space
  0
BLOCK_RECORD
  5
212
100
AcDbSymbolTableRecord
100
AcDbBlockTableRecord
  2
_FILLED
  0
ENDTAB
  0
TABLE
  2
DIMSTYLE
  5
A
100
AcDbSymbolTable
 70
1
100
AcDbDimStyleTable
 71
0
  0
DIMSTYLE
105
213
100
AcDbSymbolTableRecord
100
AcDbDimStyleTableRecord
  2
STANDARD
 70
0
  3

  4

 40
1.0
 41
2.0188155541
 42
1.0
 43
0.38
 44
1.0
 45
0.0
 46
0.0
 47
0.01
 48
0.01
140
2.8263417757
141
0.09
142
0.0
143
25.4
144
1.0
145
0.0
146
1.0
147
0.625
 71
1
 72
0
 73
0
 74
0
 75
0
 76
0
 77
1
 78
8
 79
2
170
0
171
1
172
0
173
0
174
0
175
0
176
0
177
0
178
0
270
2
179
2
271
2
272
2
273
2
274
2
275
0
280
0
281
0
282
0
283
1
284
8
285
0
286
0
287
3
288
0
340
11
278
46
341
212
342
212
343
212
344
212
  0
ENDTAB
  0
ENDSEC
  0
SECTION
  2
BLOCKS
  0
BLOCK
  5
20
100
AcDbEntity
  8
0
100
AcDbBlockBegin
  2
*Model_Space
 70
0
 10
0.0
 20
0.0
 30
0.0
  3
*Model_Space
  1

  0
ENDBLK
  5
21
100
AcDbEntity
  8
0
100
AcDbBlockEnd
  0
BLOCK
  5
1C
100
AcDbEntity
  8
0
100
AcDbBlockBegin
  2
*Paper_Space
 70
0
 10
0.0
 20
0.0
 30
0.0
  3
*Paper_Space
  1

  0
ENDBLK
  5
1D
100
AcDbEntity
  8
0
100
AcDbBlockEnd
  0
BLOCK
  5
214
100
AcDbEntity
  8
0
100
AcDbBlockBegin
  2
_FILLED
 70
64
 10
0.0
 20
0.0
  3
_FILLED
  1

  0
SOLID
  5
215
100
AcDbEntity
  8
0
  6
BYBLOCK
 62
0
100
AcDbTrace
 10
0.0
 20
0.0
 11
-1.0
 21
0.25
 12
-1.0
 22
-0.25
 13
-1.0
 23
-0.25
  0
ENDBLK
  5
216
100
AcDbEntity
  8
0
  6
BYBLOCK
 62
0
100
AcDbBlockEnd
  0
ENDSEC
  0
SECTION
  2
ENTITIES
  0
LINE
  5
217
100
AcDbEntity
  8
0
100
AcDbLine
 62
7
  6
BYLAYER
 10
20.0450452658
 20
124.1835271403
 11
20.0450452658
 21
115.6440394091
  0
LINE
  5
218
100
AcDbEntity
  8
0
100
AcDbLine
 62
7
  6
BYLAYER
 10
20.0450452658
 20
112.4583791815
 11
20.0450452658
 21
93.6605283303
  0
LINE
  5
219
100
AcDbEntity
  8
0
100
AcDbLine
 62
7
  6
BYLAYER
 10
20.0450452658
 20
90.4748681027
 11
20.0450452658
 21
89.9099890436
  0
LINE
  5
21A
100
AcDbEntity
  8
0
100
AcDbLine
 62
7
  6
BYLAYER
 10
24.4866601498
 20
127.1087376725
 11
24.4866601498
 21
127.0485485336
  0
LINE
  5
21B
100
AcDbEntity
  8
0
100
AcDbLine
 62
7
  6
BYLAYER
 10
20.2291774457
 20
124.5904821524
 11
20.0450452658
 21
124.1835271403
  0
LINE
  5
21C
100
AcDbEntity
  8
0
100
AcDbLine
 62
7
  6
BYLAYER
 10
20.673665824
 20
88.8211923464
 11
21.163430001
 21
88.5384332638
  0
LINE
  5
21D
100
AcDbEntity
  8
0
100
AcDbLine
 62
7
  6
BYLAYER
 10
23.9522152791
 20
86.9283637574
 11
40.2016522409
 21
77.5469591891
  0
LINE
  5
21E
100
AcDbEntity
  8
0
100
AcDbLine
 62
7
  6
BYLAYER
 10
42.990437519
 20
75.9368896827
 11
50.3553319096
 21
71.6848621174
  0
LINE
  5
21F
100
AcDbEntity
  8
0
100
AcDbLine
 62
7
  6
BYLAYER
 10
26.5162175612
 20
128.5811653473
 11
26.5162175612
 21
144.9649531129
  0
LINE
  5
220
100
AcDbEntity
  8
0
100
AcDbLine
 62
7
  6
BYLAYER
 10
27.0369869351
 20
128.8818298908
 11
27.0369869351
 21
144.2390950073
  0
LINE
  5
221
100
AcDbEntity
  8
0
100
AcDbLine
 62
7
  6
BYLAYER
 10
54.8774713402
 20
73.9950483462
 11
78.0585218053
 21
60.6117653904
  0
LINE
  5
222
100
AcDbEntity
  8
0
100
AcDbLine
 62
7
  6
BYLAYER
 10
55.0573240728
 20
74.09888575
 11
55.1094610078
 21
74.0687851575
  0
LINE
  5
223
100
AcDbEntity
  8
0
100
AcDbLine
 62
7
  6
BYLAYER
 10
89.1800900847
 20
181.5689343868
 11
27.0369764776
 21
145.690805181
  0
LINE
  5
224
100
AcDbEntity
  8
0
100
AcDbLine
 62
7
  6
BYLAYER
 10
50.3553319096
 20
71.6848621174
 11
50.7998202844
 21
71.6408517327
  0
LINE
  5
225
100
AcDbEntity
  8
0
100
AcDbLine
 62
7
  6
BYLAYER
 10
55.1094610078
 20
74.0687851575
 11
55.5539493825
 21
74.0247747727
  0
LINE
  5
226
100
AcDbEntity
  8
0
100
AcDbLine
 62
7
  6
BYLAYER
 10
87.3935369083
 20
58.8516670777
 11
79.3157629079
 21
63.5152665665
  0
LINE
  5
227
100
AcDbEntity
  8
0
100
AcDbLine
 62
7
  6
BYLAYER
 10
87.3845593067
 20
62.1129080793
 11
61.1530144657
 21
77.2573549413
  0
LINE
  5
228
100
AcDbEntity
  8
0
100
AcDbLine
 62
7
  6
BYLAYER
 10
69.6036499552
 20
72.9126471639
 11
78.2247317241
 21
73.6827808837
  0
LINE
  5
229
100
AcDbEntity
  8
0
100
AcDbLine
 62
7
  6
BYLAYER
 10
60.9825681862
 20
83.6373234419
 11
69.6036499552
 21
72.9126471639
  0
LINE
  5
22A
100
AcDbEntity
  8
0
100
AcDbLine
 62
7
  6
BYLAYER
 10
103.8179057038
 20
175.5027593112
 11
103.0098262941
 21
175.0362172314
  0
LINE
  5
22B
100
AcDbEntity
  8
0
100
AcDbLine
 62
7
  6
BYLAYER
 10
24.6707826872
 20
127.515709386
 11
33.8665266694
 21
132.8248429582
  0
LINE
  5
22C
100
AcDbEntity
  8
0
100
AcDbLine
 62
7
  6
BYLAYER
 10
25.1152806955
 20
127.471682305
 11
34.3110246777
 21
132.7808158773
  0
LINE
  5
22D
100
AcDbEntity
  8
0
100
AcDbLine
 62
7
  6
BYLAYER
 10
20.2291678032
 20
124.5904988538
 11
24.8270397943
 21
127.2450656399
  0
LINE
  5
22E
100
AcDbEntity
  8
0
100
AcDbLine
 62
7
  6
BYLAYER
 10
20.6736658114
 20
124.5464717728
 11
25.2715378025
 21
127.201038559
  0
LINE
  5
22F
100
AcDbEntity
  8
0
100
AcDbLine
 62
7
  6
BYLAYER
 10
50.9839524642
 20
72.0478067448
 11
50.9839524642
 21
106.3213448415
  0
LINE
  5
230
100
AcDbEntity
  8
0
100
AcDbLine
 62
7
  6
BYLAYER
 10
55.5818244553
 20
108.9759116277
 11
55.5818244553
 21
74.702373531
  0
LINE
  5
231
100
AcDbEntity
  8
0
100
AcDbLine
 62
7
  6
BYLAYER
 10
55.7380815624
 20
74.4317297849
 11
55.7380815624
 21
109.0661292899
  0
LINE
  5
232
100
AcDbEntity
  8
0
100
AcDbLine
 62
7
  6
BYLAYER
 10
60.9825681862
 20
95.1321334395
 11
60.9825681862
 21
83.6373234419
  0
LINE
  5
233
100
AcDbEntity
  8
0
100
AcDbLine
 62
7
  6
BYLAYER
 10
23.9633968421
 20
118.1226920124
 11
20.5149928488
 21
116.1317669228
  0
LINE
  5
234
100
AcDbEntity
  8
0
100
AcDbLine
 62
7
  6
BYLAYER
 10
50.355331906
 20
107.4101415387
 11
20.6736658204
 21
124.5464717677
  0
LINE
  5
235
100
AcDbEntity
  8
0
100
AcDbLine
 62
7
  6
BYLAYER
 10
25.2715378115
 20
127.2010385538
 11
54.9532038971
 21
110.0647083248
  0
LINE
  5
236
100
AcDbEntity
  8
0
100
AcDbLine
 62
7
  6
BYLAYER
 10
55.1094610042
 20
110.154925987
 11
25.1152807044
 21
127.4716822999
  0
LINE
  5
237
100
AcDbEntity
  8
0
100
AcDbLine
 62
7
  6
BYLAYER
 10
78.2247317241
 20
85.1775908813
 11
69.6036499552
 21
95.9022671593
  0
LINE
  5
238
100
AcDbEntity
  8
0
100
AcDbLine
 62
7
  6
BYLAYER
 10
64.9338255446
 20
114.3752628621
 11
64.9338255446
 21
97.4133793219
  0
LINE
  5
239
100
AcDbEntity
  8
0
100
AcDbLine
 62
7
  6
BYLAYER
 10
28.0273786481
 20
111.0836270262
 11
24.5789746547
 21
109.0927019366
  0
LINE
  5
23A
100
AcDbEntity
  8
0
100
AcDbLine
 62
7
  6
BYLAYER
 10
69.6036499552
 20
95.9022671593
 11
60.9825681862
 21
95.1321334395
  0
LINE
  5
23B
100
AcDbEntity
  8
0
100
AcDbLine
 62
7
  6
BYLAYER
 10
69.6035781695
 20
100.1094461635
 11
78.2246599385
 21
100.8795798833
  0
LINE
  5
23C
100
AcDbEntity
  8
0
100
AcDbLine
 62
7
  6
BYLAYER
 10
78.2246599385
 20
100.8795798833
 11
86.8457417075
 21
90.1549036053
  0
LINE
  5
23D
100
AcDbEntity
  8
0
100
AcDbLine
 62
7
  6
BYLAYER
 10
50.7998202844
 20
71.6408517327
 11
50.9839524642
 21
72.0478067448
  0
LINE
  5
23E
100
AcDbEntity
  8
0
100
AcDbLine
 62
7
  6
BYLAYER
 10
132.0158732831
 20
166.0976401546
 11
126.0621954503
 21
162.6603031733
  0
LINE
  5
23F
100
AcDbEntity
  8
0
100
AcDbLine
 62
7
  6
BYLAYER
 10
138.7510934152
 20
166.6993071231
 11
128.9087672293
 21
161.0168713698
  0
LINE
  5
240
100
AcDbEntity
  8
0
100
AcDbLine
 62
7
  6
BYLAYER
 10
34.3110246866
 20
132.7808158721
 11
64.3052049864
 21
115.4640595593
  0
LINE
  5
241
100
AcDbEntity
  8
0
100
AcDbLine
 62
7
  6
BYLAYER
 10
78.2247317241
 20
73.6827808837
 11
78.2247317241
 21
85.1775908813
  0
LINE
  5
242
100
AcDbEntity
  8
0
100
AcDbLine
 62
7
  6
BYLAYER
 10
79.3157629079
 20
61.3376546331
 11
79.3157629079
 21
63.5152665665
  0
LINE
  5
243
100
AcDbEntity
  8
0
100
AcDbLine
 62
7
  6
BYLAYER
 10
55.5818244553
 20
74.702373531
 11
55.3976922755
 21
74.2954185188
  0
LINE
  5
244
100
AcDbEntity
  8
0
100
AcDbLine
 62
7
  6
BYLAYER
 10
43.001619082
 20
107.1312179377
 11
39.5532150886
 21
105.1402928481
  0
LINE
  5
245
100
AcDbEntity
  8
0
100
AcDbLine
 62
7
  6
BYLAYER
 10
23.9633968421
 20
96.1391809336
 11
20.5149928488
 21
94.148255844
  0
LINE
  5
246
100
AcDbEntity
  8
0
100
AcDbLine
 62
7
  6
BYLAYER
 10
64.3052049989
 20
115.4640595521
 11
55.1094610167
 21
110.1549259798
  0
LINE
  5
247
100
AcDbEntity
  8
0
100
AcDbLine
 62
7
  6
BYLAYER
 10
54.9532039097
 20
110.0647083176
 11
50.3553319186
 21
107.4101415315
  0
LINE
  5
248
100
AcDbEntity
  8
0
100
AcDbLine
 62
7
  6
BYLAYER
 10
136.6857799481
 20
156.5269125596
 11
135.8777005384
 21
156.0603704798
  0
LINE
  5
249
100
AcDbEntity
  8
0
100
AcDbLine
 62
7
  6
BYLAYER
 10
55.7380815624
 20
109.0661293002
 11
64.9338255446
 21
114.3752628725
  0
LINE
  5
24A
100
AcDbEntity
  8
0
100
AcDbLine
 62
7
  6
BYLAYER
 10
50.9839524642
 20
106.3213448519
 11
55.5818244553
 21
108.975911638
  0
LINE
  5
24B
100
AcDbEntity
  8
0
100
AcDbLine
 62
7
  6
BYLAYER
 10
27.0369869464
 20
144.2390950008
 11
87.3845593067
 21
109.3981960601
  0
LINE
  5
24C
100
AcDbEntity
  8
0
100
AcDbLine
 62
7
  6
BYLAYER
 10
86.8457417075
 20
78.6600936077
 11
86.8457417075
 21
90.1549036053
  0
LINE
  5
24D
100
AcDbEntity
  8
0
100
AcDbLine
 62
7
  6
BYLAYER
 10
145.4863135472
 20
158.320653781
 11
138.7245563047
 21
154.4167747199
  0
LINE
  5
24E
100
AcDbEntity
  8
0
100
AcDbLine
 62
7
  6
BYLAYER
 10
47.0656008879
 20
100.0921529515
 11
43.6171968946
 21
98.1012278619
  0
LINE
  5
24F
100
AcDbEntity
  8
0
100
AcDbLine
 62
7
  6
BYLAYER
 10
28.0273786481
 20
89.1001159474
 11
24.5789746547
 21
87.1091908578
  0
LINE
  5
250
100
AcDbEntity
  8
0
100
AcDbLine
 62
7
  6
BYLAYER
 10
20.6736658204
 20
124.5464717677
 11
20.2291774457
 21
124.5904821524
  0
LINE
  5
251
100
AcDbEntity
  8
0
100
AcDbLine
 62
7
  6
BYLAYER
 10
87.384559318
 20
109.3981960536
 11
87.384559318
 21
62.1129080727
  0
LINE
  5
252
100
AcDbEntity
  8
0
100
AcDbLine
 62
7
  6
BYLAYER
 10
87.3935369196
 20
62.1129080793
 11
87.3935369196
 21
58.8516670711
  0
LINE
  5
253
100
AcDbEntity
  8
0
100
AcDbLine
 62
7
  6
BYLAYER
 10
89.8990310319
 20
62.1129141168
 11
89.8990310319
 21
109.3982020976
  0
LINE
  5
254
100
AcDbEntity
  8
0
100
AcDbLine
 62
7
  6
BYLAYER
 10
89.9080086334
 20
58.8516731152
 11
89.9080086334
 21
62.1129141233
  0
LINE
  5
255
100
AcDbEntity
  8
0
100
AcDbLine
 62
7
  6
BYLAYER
 10
24.8270494368
 20
127.2450489386
 11
25.2715378115
 21
127.2010385538
  0
LINE
  5
256
100
AcDbEntity
  8
0
100
AcDbLine
 62
7
  6
BYLAYER
 10
25.1152807044
 20
127.4716822999
 11
24.6707923297
 21
127.5156926846
  0
LINE
  5
257
100
AcDbEntity
  8
0
100
AcDbLine
 62
7
  6
BYLAYER
 10
43.001619082
 20
85.1477068589
 11
39.5532150886
 21
83.1567817693
  0
LINE
  5
258
100
AcDbEntity
  8
0
100
AcDbLine
 62
7
  6
BYLAYER
 10
60.9825681862
 20
95.1321334395
 11
69.6035781695
 21
100.1094461635
  0
LINE
  5
259
100
AcDbEntity
  8
0
100
AcDbLine
 62
7
  6
BYLAYER
 10
89.8990310432
 20
109.3982021041
 11
152.0421446503
 21
145.2763313099
  0
LINE
  5
25A
100
AcDbEntity
  8
0
100
AcDbLine
 62
7
  6
BYLAYER
 10
69.6036499552
 20
95.9022671593
 11
78.2246599385
 21
100.8795798833
  0
LINE
  5
25B
100
AcDbEntity
  8
0
100
AcDbLine
 62
7
  6
BYLAYER
 10
33.8665363119
 20
132.8248262569
 11
34.3110246866
 21
132.7808158721
  0
LINE
  5
25C
100
AcDbEntity
  8
0
100
AcDbLine
 62
7
  6
BYLAYER
 10
47.0656008879
 20
78.1086418727
 11
43.6171968946
 21
76.1177167831
  0
LINE
  5
25D
100
AcDbEntity
  8
0
100
AcDbLine
 62
7
  6
BYLAYER
 10
55.5818244553
 20
74.7023735165
 11
50.9839524642
 21
72.0478067303
  0
LINE
  5
25E
100
AcDbEntity
  8
0
100
AcDbLine
 62
7
  6
BYLAYER
 10
50.7998299268
 20
71.6408350313
 11
55.3977019179
 21
74.2954018175
  0
LINE
  5
25F
100
AcDbEntity
  8
0
100
AcDbLine
 62
7
  6
BYLAYER
 10
64.3743912113
 20
79.4178757077
 11
55.7380815624
 21
74.4317297704
  0
LINE
  5
260
100
AcDbEntity
  8
0
100
AcDbLine
 62
7
  6
BYLAYER
 10
55.553959025
 20
74.0247580714
 11
64.5394713405
 21
79.2125150588
  0
LINE
  5
261
100
AcDbEntity
  8
0
100
AcDbLine
 62
7
  6
BYLAYER
 10
78.2247317241
 20
85.1775908813
 11
86.8457417075
 21
90.1549036053
  0
LINE
  5
262
100
AcDbEntity
  8
0
100
AcDbLine
 62
7
  6
BYLAYER
 10
78.2247317241
 20
73.6827808837
 11
86.8457417075
 21
78.6600936077
  0
LINE
  5
263
100
AcDbEntity
  8
0
100
AcDbLine
 62
7
  6
BYLAYER
 10
132.0158732831
 20
166.0976401546
 11
138.7510934152
 21
166.6993071231
  0
LINE
  5
264
100
AcDbEntity
  8
0
100
AcDbLine
 62
7
  6
BYLAYER
 10
81.2016571336
 20
62.4264696595
 11
79.3157629079
 21
61.33765462
  0
LINE
  5
265
100
AcDbEntity
  8
0
100
AcDbLine
 62
7
  6
BYLAYER
 10
78.9475178348
 20
60.5237112189
 11
81.7224388037
 21
62.1258030241
  0
LINE
  5
266
100
AcDbEntity
  8
0
100
AcDbLine
 62
7
  6
BYLAYER
 10
136.6857799481
 20
155.5938361695
 11
136.6857799481
 21
156.5269125596
  0
LINE
  5
267
100
AcDbEntity
  8
0
100
AcDbLine
 62
7
  6
BYLAYER
 10
152.0421446503
 20
97.9910433291
 11
89.8990310432
 21
62.1129141233
  0
LINE
  5
268
100
AcDbEntity
  8
0
100
AcDbLine
 62
7
  6
BYLAYER
 10
151.4045465031
 20
94.3565038732
 11
89.9080086447
 21
58.8516731217
  0
LINE
  5
269
100
AcDbEntity
  8
0
100
AcDbLine
 62
7
  6
BYLAYER
 10
145.4863135472
 20
158.320653781
 11
145.4863135472
 21
150.5129606718
  0
LINE
  5
26A
100
AcDbEntity
  8
0
100
AcDbLine
 62
7
  6
BYLAYER
 10
152.0421341816
 20
146.7280414901
 11
91.6945618212
 21
181.5689404308
  0
LINE
  5
26B
100
AcDbEntity
  8
0
100
AcDbLine
 62
7
  6
BYLAYER
 10
136.6857799481
 20
156.5269125596
 11
103.8179057038
 21
175.5027593112
  0
LINE
  5
26C
100
AcDbEntity
  8
0
100
AcDbLine
 62
7
  6
BYLAYER
 10
151.4045465144
 20
97.6229280711
 11
151.4045465144
 21
94.3565038797
  0
LINE
  5
26D
100
AcDbEntity
  8
0
100
AcDbLine
 62
7
  6
BYLAYER
 10
151.9253054195
 20
95.0823559413
 11
151.9253054195
 21
97.9235865704
  0
LINE
  5
26E
100
AcDbEntity
  8
0
100
AcDbLine
 62
7
  6
BYLAYER
 10
152.0421446616
 20
145.2763313164
 11
152.0421446616
 21
97.9910433356
  0
LINE
  5
26F
100
AcDbEntity
  8
0
100
AcDbLine
 62
7
  6
BYLAYER
 10
152.5629035667
 20
98.7168953972
 11
152.5629035667
 21
146.002183378
  0
LINE
  5
270
100
AcDbEntity
  8
0
100
AcDbLine
 62
7
  6
BYLAYER
 10
138.7510934152
 20
166.6993071231
 11
145.4863135472
 21
158.320653781
  0
ARC
  5
271
100
AcDbEntity
  8
0
100
AcDbCircle
 62
7
  6
BYLAYER
 10
26.5755561329
 20
92.9545150908
 40
6.9981296536
100
AcDbArc
 50
204.7333748261
 51
215.2667835488
  0
ARC
  5
272
100
AcDbEntity
  8
0
100
AcDbCircle
 62
7
  6
BYLAYER
 10
26.3332064822
 20
92.7819079935
 40
6.7005972709
100
AcDbArc
 50
215.2582323808
 51
218.7363737734
  0
ARC
  5
273
100
AcDbEntity
  8
0
100
AcDbCircle
 62
7
  6
BYLAYER
 10
67.3831340723
 20
87.2238872271
 40
6.1608347419
100
AcDbArc
 50
69.430400068
 51
72.5668959318
  0
SPLINE
  5
274
100
AcDbEntity
  8
0
100
AcDbSpline
 62
7
  6
BYLAYER
 70
0
 71
3
 72
9
 73
5
 74
0
 42
0.0000001
 43
0.0000001
 44
0.0000000001
 40
0.0
 40
0.0
 40
0.0
 40
0.0
 40
0.4615225561
 40
1.0
 40
1.0
 40
1.0
 40
1.0
 10
108.7866881235
 20
172.7163453847
 30
0.0
 10
109.0275762649
 20
172.6669105438
 30
0.0
 10
109.527693088
 20
172.4540114433
 30
0.0
 10
109.9507747079
 20
172.1230729657
 30
0.0
 10
110.1591601668
 20
171.925858233
 30
0.0
  0
SPLINE
  5
275
100
AcDbEntity
  8
0
100
AcDbSpline
 62
7
  6
BYLAYER
 70
0
 71
3
 72
9
 73
5
 74
0
 42
0.0000001
 43
0.0000001
 44
0.0000000001
 40
0.0
 40
0.0
 40
0.0
 40
0.0
 40
0.4615225561
 40
1.0
 40
1.0
 40
1.0
 40
1.0
 10
133.9315099497
 20
158.199304154
 30
0.0
 10
134.1723980911
 20
158.1498693131
 30
0.0
 10
134.6725149142
 20
157.9369702125
 30
0.0
 10
135.0955965341
 20
157.606031735
 30
0.0
 10
135.303981993
 20
157.4088170022
 30
0.0
  0
SPLINE
  5
276
100
AcDbEntity
  8
0
100
AcDbSpline
 62
7
  6
BYLAYER
 70
0
 71
3
 72
11
 73
7
 74
0
 42
0.0000001
 43
0.0000001
 44
0.0000000001
 40
0.0
 40
0.0
 40
0.0
 40
0.0
 40
0.2177438686
 40
0.4508811914
 40
0.7104582956
 40
1.0
 40
1.0
 40
1.0
 40
1.0
 10
151.9252059352
 20
95.0823559419
 30
0.0
 10
151.9252059201
 20
95.0146487008
 30
0.0
 10
151.9003425837
 20
94.8734855428
 30
0.0
 10
151.7932594989
 20
94.6767686295
 30
0.0
 10
151.6240083294
 20
94.4990828457
 30
0.0
 10
151.4825172311
 20
94.4015200254
 30
0.0
 10
151.4045465031
 20
94.3565038732
 30
0.0
  0
SPLINE
  5
277
100
AcDbEntity
  8
0
100
AcDbSpline
 62
7
  6
BYLAYER
 70
0
 71
3
 72
11
 73
7
 74
0
 42
0.0000001
 43
0.0000001
 44
0.0000000001
 40
0.0
 40
0.0
 40
0.0
 40
0.0
 40
0.217779605
 40
0.4509236448
 40
0.7102593092
 40
1.0
 40
1.0
 40
1.0
 40
1.0
 10
143.4630979842
 20
144.7578284395
 30
0.0
 10
143.4631380483
 20
144.5304830579
 30
0.0
 10
143.3790633137
 20
144.0566012311
 30
0.0
 10
143.0198708213
 20
143.3963926276
 30
0.0
 10
142.4520190469
 20
142.7994955898
 30
0.0
 10
141.9768161897
 20
142.4722723393
 30
0.0
 10
141.7148714338
 20
142.3210393668
 30
0.0
  0
SPLINE
  5
278
100
AcDbEntity
  8
0
100
AcDbSpline
 62
7
  6
BYLAYER
 70
0
 71
3
 72
11
 73
7
 74
0
 42
0.0000001
 43
0.0000001
 44
0.0000000001
 40
0.0
 40
0.0
 40
0.0
 40
0.0
 40
0.217779605
 40
0.4509236448
 40
0.7102593092
 40
1.0
 40
1.0
 40
1.0
 40
1.0
 10
45.7579113879
 20
144.7575935852
 30
0.0
 10
45.7579514519
 20
144.5302482035
 30
0.0
 10
45.6738767173
 20
144.0563663767
 30
0.0
 10
45.314684225
 20
143.3961577732
 30
0.0
 10
44.7468324505
 20
142.7992607354
 30
0.0
 10
44.2716295933
 20
142.4720374849
 30
0.0
 10
44.0096848374
 20
142.3208045124
 30
0.0
  0
SPLINE
  5
279
100
AcDbEntity
  8
0
100
AcDbSpline
 62
7
  6
BYLAYER
 70
0
 71
3
 72
11
 73
7
 74
0
 42
0.0000001
 43
0.0000001
 44
0.0000000001
 40
0.0
 40
0.0
 40
0.0
 40
0.0
 40
0.2372524155
 40
0.4999996414
 40
0.7627470637
 40
1.0
 40
1.0
 40
1.0
 40
1.0
 10
89.8990310432
 20
62.1129141233
 30
0.0
 10
89.7205303704
 20
62.0098573273
 30
0.0
 10
89.3054544987
 20
61.8594487318
 30
0.0
 10
88.6417967867
 20
61.7875388647
 30
0.0
 10
87.9781383037
 20
61.8594458456
 30
0.0
 10
87.5630611144
 20
62.0098523443
 30
0.0
 10
87.3845593067
 20
62.1129080793
 30
0.0
  0
SPLINE
  5
27A
100
AcDbEntity
  8
0
100
AcDbSpline
 62
7
  6
BYLAYER
 70
0
 71
3
 72
11
 73
7
 74
0
 42
0.0000001
 43
0.0000001
 44
0.0000000001
 40
0.0
 40
0.0
 40
0.0
 40
0.0
 40
0.2177839466
 40
0.4509170841
 40
0.710307871
 40
1.0
 40
1.0
 40
1.0
 40
1.0
 10
20.5150022296
 20
94.1482396885
 30
0.0
 10
20.3809547282
 20
94.0708233883
 30
0.0
 10
20.130117663
 20
93.8599886087
 30
0.0
 10
19.8630953687
 20
93.4233730761
 30
0.0
 10
19.7045084242
 20
92.8853248584
 30
0.0
 10
19.6732898288
 20
92.4937214406
 30
0.0
 10
19.6732898288
 20
92.2878137773
 30
0.0
  0
SPLINE
  5
27B
100
AcDbEntity
  8
0
100
AcDbSpline
 62
7
  6
BYLAYER
 70
0
 71
3
 72
11
 73
7
 74
0
 42
0.0000001
 43
0.0000001
 44
0.0000000001
 40
0.0
 40
0.0
 40
0.0
 40
0.0
 40
0.2177839466
 40
0.4509170841
 40
0.710307871
 40
1.0
 40
1.0
 40
1.0
 40
1.0
 10
20.5150022296
 20
116.1317507673
 30
0.0
 10
20.3809547282
 20
116.0543344671
 30
0.0
 10
20.130117663
 20
115.8434996875
 30
0.0
 10
19.8630953687
 20
115.4068841549
 30
0.0
 10
19.7045084242
 20
114.8688359372
 30
0.0
 10
19.6732898288
 20
114.4772325194
 30
0.0
 10
19.6732898288
 20
114.2713248561
 30
0.0
  0
SPLINE
  5
27C
100
AcDbEntity
  8
0
100
AcDbSpline
 62
7
  6
BYLAYER
 70
0
 71
3
 72
11
 73
7
 74
0
 42
0.0000001
 43
0.0000001
 44
0.0000000001
 40
0.0
 40
0.0
 40
0.0
 40
0.0
 40
0.2895416686
 40
0.5491189711
 40
0.7822562704
 40
1.0
 40
1.0
 40
1.0
 40
1.0
 10
27.0369764776
 20
145.690805181
 30
0.0
 10
26.9590057605
 20
145.6457890351
 30
0.0
 10
26.8175146898
 20
145.5482261068
 30
0.0
 10
26.6482633949
 20
145.3705403773
 30
0.0
 10
26.5411804058
 20
145.173823407
 30
0.0
 10
26.5163170245
 20
145.0326603104
 30
0.0
 10
26.5163170455
 20
144.9649531136
 30
0.0
  0
SPLINE
  5
27D
100
AcDbEntity
  8
0
100
AcDbSpline
 62
7
  6
BYLAYER
 70
0
 71
3
 72
11
 73
7
 74
0
 42
0.0000001
 43
0.0000001
 44
0.0000000001
 40
0.0
 40
0.0
 40
0.0
 40
0.0
 40
0.2372531816
 40
0.5000006935
 40
0.7627478297
 40
1.0
 40
1.0
 40
1.0
 40
1.0
 10
91.6945618212
 20
181.5689404308
 30
0.0
 10
91.516059829
 20
181.6719962724
 30
0.0
 10
91.1009823248
 20
181.8224028069
 30
0.0
 10
90.437323612
 20
181.8943096454
 30
0.0
 10
89.7736661297
 20
181.8223996358
 30
0.0
 10
89.358590573
 20
181.6719910762
 30
0.0
 10
89.1800900847
 20
181.5689343868
 30
0.0
  0
SPLINE
  5
27E
100
AcDbEntity
  8
0
100
AcDbSpline
 62
7
  6
BYLAYER
 70
0
 71
3
 72
17
 73
13
 74
0
 42
0.0000001
 43
0.0000001
 44
0.0000000001
 40
0.0
 40
0.0
 40
0.0
 40
0.0
 40
0.1286928302
 40
0.2702775946
 40
0.4174343343
 40
0.5617794473
 40
0.6954505047
 40
0.8127129954
 40
0.8646788776
 40
0.9125110204
 40
0.9571404195
 40
1.0
 40
1.0
 40
1.0
 40
1.0
 10
44.0096848374
 20
142.3208045124
 30
0.0
 10
43.5678228819
 20
142.0656969162
 30
0.0
 10
42.5674113451
 20
141.6529146653
 30
0.0
 10
40.9369234327
 20
141.3267660482
 30
0.0
 10
39.2124043392
 20
141.278986481
 30
0.0
 10
37.534566795
 20
141.5147379843
 30
0.0
 10
36.039423377
 20
142.0141057537
 30
0.0
 10
34.9996689305
 20
142.6471595271
 30
0.0
 10
34.3893059881
 20
143.2594988478
 30
0.0
 10
34.0652643127
 20
143.7364157019
 30
0.0
 10
33.8653748583
 20
144.239322872
 30
0.0
 10
33.8200123328
 20
144.58767185
 30
0.0
 10
33.8199823882
 20
144.7575935671
 30
0.0
  0
SPLINE
  5
27F
100
AcDbEntity
  8
0
100
AcDbSpline
 62
7
  6
BYLAYER
 70
0
 71
3
 72
17
 73
13
 74
0
 42
0.0000001
 43
0.0000001
 44
0.0000000001
 40
0.0
 40
0.0
 40
0.0
 40
0.0
 40
0.1286928302
 40
0.2702775946
 40
0.4174343343
 40
0.5617794473
 40
0.6954505047
 40
0.8127129954
 40
0.8646788776
 40
0.9125110204
 40
0.9571404195
 40
1.0
 40
1.0
 40
1.0
 40
1.0
 10
141.7148714338
 20
142.3210393668
 30
0.0
 10
141.2730094783
 20
142.0659317706
 30
0.0
 10
140.2725979415
 20
141.6531495197
 30
0.0
 10
138.6421100291
 20
141.3270009026
 30
0.0
 10
136.9175909356
 20
141.2792213354
 30
0.0
 10
135.2397533914
 20
141.5149728387
 30
0.0
 10
133.7446099734
 20
142.0143406081
 30
0.0
 10
132.7048555269
 20
142.6473943814
 30
0.0
 10
132.0944925845
 20
143.2597337021
 30
0.0
 10
131.7704509091
 20
143.7366505562
 30
0.0
 10
131.5705614547
 20
144.2395577264
 30
0.0
 10
131.5251989292
 20
144.5879067044
 30
0.0
 10
131.5251689846
 20
144.7578284214
 30
0.0
  0
SPLINE
  5
280
100
AcDbEntity
  8
0
100
AcDbSpline
 62
7
  6
BYLAYER
 70
0
 71
3
 72
11
 73
7
 74
0
 42
0.0000001
 43
0.0000001
 44
0.0000000001
 40
0.0
 40
0.0
 40
0.0
 40
0.0
 40
0.2177839466
 40
0.4509170841
 40
0.710307871
 40
1.0
 40
1.0
 40
1.0
 40
1.0
 10
39.5532244695
 20
83.1567656138
 30
0.0
 10
39.419176968
 20
83.0793493136
 30
0.0
 10
39.1683399028
 20
82.868514534
 30
0.0
 10
38.9013176086
 20
82.4318990014
 30
0.0
 10
38.742730664
 20
81.8938507837
 30
0.0
 10
38.7115120686
 20
81.5022473659
 30
0.0
 10
38.7115120686
 20
81.2963397026
 30
0.0
  0
SPLINE
  5
281
100
AcDbEntity
  8
0
100
AcDbSpline
 62
7
  6
BYLAYER
 70
0
 71
3
 72
11
 73
7
 74
0
 42
0.0000001
 43
0.0000001
 44
0.0000000001
 40
0.0
 40
0.0
 40
0.0
 40
0.0
 40
0.2177839466
 40
0.4509170841
 40
0.710307871
 40
1.0
 40
1.0
 40
1.0
 40
1.0
 10
39.5532244695
 20
105.1402766926
 30
0.0
 10
39.419176968
 20
105.0628603924
 30
0.0
 10
39.1683399028
 20
104.8520256128
 30
0.0
 10
38.9013176086
 20
104.4154100802
 30
0.0
 10
38.742730664
 20
103.8773618625
 30
0.0
 10
38.7115120686
 20
103.4857584447
 30
0.0
 10
38.7115120686
 20
103.2798507814
 30
0.0
  0
SPLINE
  5
282
100
AcDbEntity
  8
0
100
AcDbSpline
 62
7
  6
BYLAYER
 70
0
 71
3
 72
9
 73
5
 74
0
 42
0.0000001
 43
0.0000001
 44
0.0000000001
 40
0.0
 40
0.0
 40
0.0
 40
0.0
 40
0.2565533948
 40
1.0
 40
1.0
 40
1.0
 40
1.0
 10
77.0983526258
 20
80.9124783488
 30
0.0
 10
77.0947165489
 20
80.8350955695
 30
0.0
 10
77.0761212278
 20
80.5337078162
 30
0.0
 10
77.0394702033
 20
80.2333355432
 30
0.0
 10
77.0006771406
 20
80.0122236889
 30
0.0
  0
SPLINE
  5
283
100
AcDbEntity
  8
0
100
AcDbSpline
 62
7
  6
BYLAYER
 70
0
 71
3
 72
11
 73
7
 74
0
 42
0.0000001
 43
0.0000001
 44
0.0000000001
 40
0.0
 40
0.0
 40
0.0
 40
0.0
 40
0.2779153114
 40
0.533722261
 40
0.7720650188
 40
1.0
 40
1.0
 40
1.0
 40
1.0
 10
77.0006771406
 20
80.0122236889
 30
0.0
 10
76.9465462256
 20
79.7036894787
 30
0.0
 10
76.7988975244
 20
79.1172391748
 30
0.0
 10
76.4361740148
 20
78.3201925746
 30
0.0
 10
75.9467095042
 20
77.6615591969
 30
0.0
 10
75.5363837396
 20
77.3229627032
 30
0.0
 10
75.3189377585
 20
77.1861371819
 30
0.0
  0
SPLINE
  5
284
100
AcDbEntity
  8
0
100
AcDbSpline
 62
7
  6
BYLAYER
 70
0
 71
3
 72
9
 73
5
 74
0
 42
0.0000001
 43
0.0000001
 44
0.0000000001
 40
0.0
 40
0.0
 40
0.0
 40
0.0
 40
0.2436501239
 40
1.0
 40
1.0
 40
1.0
 40
1.0
 10
24.6707923297
 20
127.5156926846
 30
0.0
 10
24.6590610374
 20
127.5089196622
 30
0.0
 10
24.6128171677
 20
127.4778298689
 30
0.0
 10
24.5758451302
 20
127.4338581564
 30
0.0
 10
24.5545286976
 20
127.3976110868
 30
0.0
  0
SPLINE
  5
285
100
AcDbEntity
  8
0
100
AcDbSpline
 62
7
  6
BYLAYER
 70
0
 71
3
 72
9
 73
5
 74
0
 42
0.0000001
 43
0.0000001
 44
0.0000000001
 40
0.0
 40
0.0
 40
0.0
 40
0.0
 40
0.2269674769
 40
1.0
 40
1.0
 40
1.0
 40
1.0
 10
24.5545286976
 20
127.3976110868
 30
0.0
 10
24.5430692269
 20
127.3781250761
 30
0.0
 10
24.5002689908
 20
127.287719127
 30
0.0
 10
24.48666015
 20
127.1857313066
 30
0.0
 10
24.4866601498
 20
127.1087376725
 30
0.0
  0
SPLINE
  5
286
100
AcDbEntity
  8
0
100
AcDbSpline
 62
7
  6
BYLAYER
 70
0
 71
3
 72
11
 73
7
 74
0
 42
0.0000001
 43
0.0000001
 44
0.0000000001
 40
0.0
 40
0.0
 40
0.0
 40
0.0
 40
0.237244423
 40
0.5000010922
 40
0.762757167
 40
1.0
 40
1.0
 40
1.0
 40
1.0
 10
20.0450452658
 20
89.9099890436
 30
0.0
 10
20.045045266
 20
89.8069351327
 30
0.0
 10
20.0837086416
 20
89.589606611
 30
0.0
 10
20.2184267305
 20
89.2842235228
 30
0.0
 10
20.4155380086
 20
89.0148641441
 30
0.0
 10
20.5844186127
 20
88.8727180825
 30
0.0
 10
20.673665824
 20
88.8211923464
 30
0.0
  0
SPLINE
  5
287
100
AcDbEntity
  8
0
100
AcDbSpline
 62
7
  6
BYLAYER
 70
0
 71
3
 72
11
 73
7
 74
0
 42
0.0000001
 43
0.0000001
 44
0.0000000001
 40
0.0
 40
0.0
 40
0.0
 40
0.0
 40
0.2303060306
 40
0.4698255185
 40
0.7249568146
 40
1.0
 40
1.0
 40
1.0
 40
1.0
 10
66.2074923422
 20
92.9677177348
 30
0.0
 10
66.418007676
 20
93.078800356
 30
0.0
 10
66.8760313743
 20
93.2548593439
 30
0.0
 10
67.6231969572
 20
93.3613431355
 30
0.0
 10
68.4218474963
 20
93.313883463
 30
0.0
 10
68.957648374
 20
93.1868442984
 30
0.0
 10
69.2288713579
 20
93.1017387555
 30
0.0
  0
SPLINE
  5
288
100
AcDbEntity
  8
0
100
AcDbSpline
 62
7
  6
BYLAYER
 70
0
 71
3
 72
9
 73
5
 74
0
 42
0.0000001
 43
0.0000001
 44
0.0000000001
 40
0.0
 40
0.0
 40
0.0
 40
0.0
 40
0.2437893009
 40
1.0
 40
1.0
 40
1.0
 40
1.0
 10
69.547712205
 20
92.9919446319
 30
0.0
 10
69.6127949563
 20
92.9675666663
 30
0.0
 10
69.8781440256
 20
92.8632880421
 30
0.0
 10
70.1369216907
 20
92.7424916501
 30
0.0
 10
70.3284035275
 20
92.6434538727
 30
0.0
  0
SPLINE
  5
289
100
AcDbEntity
  8
0
100
AcDbSpline
 62
7
  6
BYLAYER
 70
0
 71
3
 72
15
 73
11
 74
0
 42
0.0000001
 43
0.0000001
 44
0.0000000001
 40
0.0
 40
0.0
 40
0.0
 40
0.0
 40
0.114153086
 40
0.2373226937
 40
0.3669711607
 40
0.4999930459
 40
0.6330167283
 40
0.7626660067
 40
0.8858473348
 40
1.0
 40
1.0
 40
1.0
 40
1.0
 10
69.6038420894
 20
93.071792226
 30
0.0
 10
70.1175056317
 20
92.7752211917
 30
0.0
 10
71.1320824839
 20
92.0639963979
 30
0.0
 10
72.5281014187
 20
90.7579140973
 30
0.0
 10
73.8146028286
 20
89.2140245566
 30
0.0
 10
74.9431683029
 20
87.4902556049
 30
0.0
 10
75.8717126523
 20
85.6510028232
 30
0.0
 10
76.5655876973
 20
83.764862503
 30
0.0
 10
76.9986478075
 20
81.9027602433
 30
0.0
 10
77.1073138028
 20
80.6684418332
 30
0.0
 10
77.1073138028
 20
80.0753128255
 30
0.0
  0
SPLINE
  5
28A
100
AcDbEntity
  8
0
100
AcDbSpline
 62
7
  6
BYLAYER
 70
0
 71
3
 72
17
 73
13
 74
0
 42
0.0000001
 43
0.0000001
 44
0.0000000001
 40
0.0
 40
0.0
 40
0.0
 40
0.0
 40
0.1286930371
 40
0.2702795962
 40
0.4174375935
 40
0.5617786795
 40
0.6954478243
 40
0.81271112
 40
0.8646738576
 40
0.9125098523
 40
0.9571380034
 40
1.0
 40
1.0
 40
1.0
 40
1.0
 10
38.7115120686
 20
103.2798507814
 30
0.0
 10
38.7115120686
 20
102.9324690618
 30
0.0
 10
38.8086822752
 20
102.2020666841
 30
0.0
 10
39.1714331148
 20
101.1296382013
 30
0.0
 10
39.7303404174
 20
100.0965495258
 30
0.0
 10
40.4405465554
 20
99.1875217871
 30
0.0
 10
41.2439709391
 20
98.4759836355
 30
0.0
 10
41.9711642297
 20
98.0783167668
 30
0.0
 10
42.540027738
 20
97.9270274753
 30
0.0
 10
42.9315445614
 20
97.898152968
 30
0.0
 10
43.2961000539
 20
97.9516755794
 30
0.0
 10
43.5169982113
 20
98.0433818042
 30
0.0
 10
43.6171875138
 20
98.1012440174
 30
0.0
  0
SPLINE
  5
28B
100
AcDbEntity
  8
0
100
AcDbSpline
 62
7
  6
BYLAYER
 70
0
 71
3
 72
17
 73
13
 74
0
 42
0.0000001
 43
0.0000001
 44
0.0000000001
 40
0.0
 40
0.0
 40
0.0
 40
0.0
 40
0.1286930371
 40
0.2702795962
 40
0.4174375935
 40
0.5617786795
 40
0.6954478243
 40
0.81271112
 40
0.8646738576
 40
0.9125098523
 40
0.9571380034
 40
1.0
 40
1.0
 40
1.0
 40
1.0
 10
38.7115120686
 20
81.2963397026
 30
0.0
 10
38.7115120686
 20
80.948957983
 30
0.0
 10
38.8086822752
 20
80.2185556053
 30
0.0
 10
39.1714331148
 20
79.1461271225
 30
0.0
 10
39.7303404174
 20
78.113038447
 30
0.0
 10
40.4405465554
 20
77.2040107083
 30
0.0
 10
41.2439709391
 20
76.4924725567
 30
0.0
 10
41.9711642297
 20
76.094805688
 30
0.0
 10
42.540027738
 20
75.9435163965
 30
0.0
 10
42.9315445614
 20
75.9146418892
 30
0.0
 10
43.2961000539
 20
75.9681645006
 30
0.0
 10
43.5169982113
 20
76.0598707254
 30
0.0
 10
43.6171875138
 20
76.1177329386
 30
0.0
  0
SPLINE
  5
28C
100
AcDbEntity
  8
0
100
AcDbSpline
 62
7
  6
BYLAYER
 70
0
 71
3
 72
17
 73
13
 74
0
 42
0.0000001
 43
0.0000001
 44
0.0000000001
 40
0.0
 40
0.0
 40
0.0
 40
0.0
 40
0.1286930371
 40
0.2702795962
 40
0.4174375935
 40
0.5617786795
 40
0.6954478243
 40
0.81271112
 40
0.8646738576
 40
0.9125098523
 40
0.9571380034
 40
1.0
 40
1.0
 40
1.0
 40
1.0
 10
19.6732898288
 20
114.2713248561
 30
0.0
 10
19.6732898288
 20
113.9239431365
 30
0.0
 10
19.7704600353
 20
113.1935407588
 30
0.0
 10
20.1332108749
 20
112.121112276
 30
0.0
 10
20.6921181775
 20
111.0880236005
 30
0.0
 10
21.4023243156
 20
110.1789958618
 30
0.0
 10
22.2057486992
 20
109.4674577102
 30
0.0
 10
22.9329419898
 20
109.0697908415
 30
0.0
 10
23.5018054981
 20
108.91850155
 30
0.0
 10
23.8933223216
 20
108.8896270427
 30
0.0
 10
24.257877814
 20
108.9431496541
 30
0.0
 10
24.4787759715
 20
109.0348558789
 30
0.0
 10
24.5789652739
 20
109.0927180921
 30
0.0
  0
SPLINE
  5
28D
100
AcDbEntity
  8
0
100
AcDbSpline
 62
7
  6
BYLAYER
 70
0
 71
3
 72
9
 73
5
 74
0
 42
0.0000001
 43
0.0000001
 44
0.0000000001
 40
0.0
 40
0.0
 40
0.0
 40
0.0
 40
0.4755862133
 40
1.0
 40
1.0
 40
1.0
 40
1.0
 10
19.6732898288
 20
92.2878137773
 30
0.0
 10
19.6732898288
 20
91.9169648833
 30
0.0
 10
19.7837634143
 20
91.1365235049
 30
0.0
 10
20.0483752533
 20
90.3979644692
 30
0.0
 10
20.2194025932
 20
90.0265241706
 30
0.0
  0
SPLINE
  5
28E
100
AcDbEntity
  8
0
100
AcDbSpline
 62
7
  6
BYLAYER
 70
0
 71
3
 72
13
 73
9
 74
0
 42
0.0000001
 43
0.0000001
 44
0.0000000001
 40
0.0
 40
0.0
 40
0.0
 40
0.0
 40
0.3070594963
 40
0.5776845044
 40
0.6967010434
 40
0.8050742696
 40
0.9049345876
 40
1.0
 40
1.0
 40
1.0
 40
1.0
 10
21.1065173488
 20
88.5890897898
 30
0.0
 10
21.3669478101
 20
88.2645368338
 30
0.0
 10
21.9151593862
 20
87.6977067588
 30
0.0
 10
22.7194682624
 20
87.1782892554
 30
0.0
 10
23.3619044299
 20
86.9606412603
 30
0.0
 10
23.8050511916
 20
86.902329815
 30
0.0
 10
24.2180605916
 20
86.9456397743
 30
0.0
 10
24.4674025423
 20
87.0447763166
 30
0.0
 10
24.5789652739
 20
87.1092070133
 30
0.0
  0
SPLINE
  5
28F
100
AcDbEntity
  8
0
100
AcDbSpline
 62
7
  6
BYLAYER
 70
0
 71
3
 72
11
 73
7
 74
0
 42
0.0000001
 43
0.0000001
 44
0.0000000001
 40
0.0
 40
0.0
 40
0.0
 40
0.0
 40
0.2177434118
 40
0.4508805376
 40
0.7104578122
 40
1.0
 40
1.0
 40
1.0
 40
1.0
 10
152.5628040824
 20
146.0021833773
 30
0.0
 10
152.5628040614
 20
146.0698913485
 30
0.0
 10
152.537940158
 20
146.2110561346
 30
0.0
 10
152.4308547563
 20
146.4077749513
 30
0.0
 10
152.2616001553
 20
146.5854620526
 30
0.0
 10
152.1201063687
 20
146.6830252451
 30
0.0
 10
152.0421341816
 20
146.7280414901
 30
0.0
  0
SPLINE
  5
290
100
AcDbEntity
  8
0
100
AcDbSpline
 62
7
  6
BYLAYER
 70
0
 71
3
 72
9
 73
5
 74
0
 42
0.0000001
 43
0.0000001
 44
0.0000000001
 40
0.0
 40
0.0
 40
0.0
 40
0.0
 40
0.4825911401
 40
1.0
 40
1.0
 40
1.0
 40
1.0
 10
152.5628040824
 20
98.7168953978
 30
0.0
 10
152.5628040672
 20
98.6484298347
 30
0.0
 10
152.5374011895
 20
98.5056456166
 30
0.0
 10
152.4677656102
 20
98.3794123518
 30
0.0
 10
152.4246398476
 20
98.3200112671
 30
0.0
  0
SPLINE
  5
291
100
AcDbEntity
  8
0
100
AcDbSpline
 62
7
  6
BYLAYER
 70
0
 71
3
 72
9
 73
5
 74
0
 42
0.0000001
 43
0.0000001
 44
0.0000000001
 40
0.0
 40
0.0
 40
0.0
 40
0.0
 40
0.2304646906
 40
1.0
 40
1.0
 40
1.0
 40
1.0
 10
152.4246398476
 20
98.3200112671
 30
0.0
 10
152.4017726064
 20
98.2885141098
 30
0.0
 10
152.2933498361
 20
98.1585123995
 30
0.0
 10
152.1546981798
 20
98.0560257519
 30
0.0
 10
152.0421446503
 20
97.9910433291
 30
0.0
  0
SPLINE
  5
292
100
AcDbEntity
  8
0
100
AcDbSpline
 62
7
  6
BYLAYER
 70
0
 71
3
 72
11
 73
7
 74
0
 42
0.0000001
 43
0.0000001
 44
0.0000000001
 40
0.0
 40
0.0
 40
0.0
 40
0.0
 40
0.2372524155
 40
0.4999996414
 40
0.7627470637
 40
1.0
 40
1.0
 40
1.0
 40
1.0
 10
89.9080086447
 20
58.8516731217
 30
0.0
 10
89.729507972
 20
58.7486163257
 30
0.0
 10
89.3144321003
 20
58.5982077302
 30
0.0
 10
88.6507743883
 20
58.5262978631
 30
0.0
 10
87.9871159052
 20
58.598204844
 30
0.0
 10
87.572038716
 20
58.7486113427
 30
0.0
 10
87.3935369083
 20
58.8516670777
 30
0.0
  0
SPLINE
  5
293
100
AcDbEntity
  8
0
100
AcDbSpline
 62
7
  6
BYLAYER
 70
0
 71
3
 72
11
 73
7
 74
0
 42
0.0000001
 43
0.0000001
 44
0.0000000001
 40
0.0
 40
0.0
 40
0.0
 40
0.0
 40
0.2895391944
 40
0.5491157946
 40
0.7822541181
 40
1.0
 40
1.0
 40
1.0
 40
1.0
 10
78.0585218053
 20
60.6117653904
 30
0.0
 10
78.1364928985
 20
60.5667497773
 30
0.0
 10
78.2917319616
 20
60.4929982316
 30
0.0
 10
78.5302403258
 20
60.4352682283
 30
0.0
 10
78.7541463775
 20
60.4408928498
 30
0.0
 10
78.8888307451
 20
60.4899432606
 30
0.0
 10
78.9474680923
 20
60.5237973746
 30
0.0
  0
SPLINE
  5
294
100
AcDbEntity
  8
0
100
AcDbSpline
 62
7
  6
BYLAYER
 70
0
 71
3
 72
17
 73
13
 74
0
 42
0.0000001
 43
0.0000001
 44
0.0000000001
 40
0.0
 40
0.0
 40
0.0
 40
0.0
 40
0.0428592926
 40
0.087485474
 40
0.1353198781
 40
0.1872819044
 40
0.3045421965
 40
0.4382074305
 40
0.582548911
 40
0.7297129633
 40
0.8713059682
 40
1.0
 40
1.0
 40
1.0
 40
1.0
 10
23.9634037749
 20
118.12268002
 30
0.0
 10
24.0635902939
 20
118.1805324828
 30
0.0
 10
24.284469396
 20
118.2722492923
 30
0.0
 10
24.6490107379
 20
118.3257568802
 30
0.0
 10
25.0405168806
 20
118.2969116513
 30
0.0
 10
25.6093661094
 20
118.145616492
 30
0.0
 10
26.3365515958
 20
117.7479870486
 30
0.0
 10
27.1399760133
 20
117.036471512
 30
0.0
 10
27.8502009217
 20
116.1274505654
 30
0.0
 10
28.4091391764
 20
115.094337872
 30
0.0
 10
28.7719069669
 20
114.021875896
 30
0.0
 10
28.8690816681
 20
113.2914535346
 30
0.0
 10
28.8690816681
 20
112.9440690929
 30
0.0
  0
SPLINE
  5
295
100
AcDbEntity
  8
0
100
AcDbSpline
 62
7
  6
BYLAYER
 70
0
 71
3
 72
18
 73
14
 74
0
 42
0.0000001
 43
0.0000001
 44
0.0000000001
 40
0.0
 40
0.0
 40
0.0
 40
0.0
 40
0.1291081885
 40
0.271203845
 40
0.4187813228
 40
0.5632808499
 40
0.6967114914
 40
0.7574672754
 40
0.8136339181
 40
0.8652244646
 40
0.9127209401
 40
0.9571380181
 40
1.0
 40
1.0
 40
1.0
 40
1.0
 10
73.0212987789
 20
93.514971517
 30
0.0
 10
73.0212987789
 20
92.7607302728
 30
0.0
 10
73.2343590149
 20
91.1745555117
 30
0.0
 10
74.0279323266
 20
88.8480687016
 30
0.0
 10
75.2496417568
 20
86.610831445
 30
0.0
 10
76.7978324357
 20
84.651256893
 30
0.0
 10
78.3020682013
 20
83.3408043401
 30
0.0
 10
79.5617379881
 20
82.5905462624
 30
0.0
 10
80.4715386509
 20
82.2051382675
 30
0.0
 10
81.3570764523
 20
81.9887568406
 30
0.0
 10
82.2006038045
 20
81.9483911585
 30
0.0
 10
82.9827477094
 20
82.0886485537
 30
0.0
 10
83.4519798568
 20
82.3046892871
 30
0.0
 10
83.6639126661
 20
82.4380423202
 30
0.0
  0
SPLINE
  5
296
100
AcDbEntity
  8
0
100
AcDbSpline
 62
7
  6
BYLAYER
 70
0
 71
3
 72
11
 73
7
 74
0
 42
0.0000001
 43
0.0000001
 44
0.0000000001
 40
0.0
 40
0.0
 40
0.0
 40
0.0
 40
0.2895416686
 40
0.5491189711
 40
0.7822562704
 40
1.0
 40
1.0
 40
1.0
 40
1.0
 10
152.0421446503
 20
145.2763313099
 30
0.0
 10
152.1201153674
 20
145.3213474558
 30
0.0
 10
152.2616064381
 20
145.4189103841
 30
0.0
 10
152.4308577331
 20
145.5965961136
 30
0.0
 10
152.5379407222
 20
145.7933130839
 30
0.0
 10
152.5628041034
 20
145.9344761805
 30
0.0
 10
152.5628040824
 20
146.0021833773
 30
0.0
  0
SPLINE
  5
297
100
AcDbEntity
  8
0
100
AcDbSpline
 62
7
  6
BYLAYER
 70
0
 71
3
 72
11
 73
7
 74
0
 42
0.0000001
 43
0.0000001
 44
0.0000000001
 40
0.0
 40
0.0
 40
0.0
 40
0.0
 40
0.2372531816
 40
0.5000006935
 40
0.7627478297
 40
1.0
 40
1.0
 40
1.0
 40
1.0
 10
87.3845593067
 20
109.3981960601
 30
0.0
 10
87.5630612989
 20
109.2951402185
 30
0.0
 10
87.9781388032
 20
109.144733684
 30
0.0
 10
88.6417975159
 20
109.0728268455
 30
0.0
 10
89.3054549982
 20
109.1447368551
 30
0.0
 10
89.720530555
 20
109.2951454147
 30
0.0
 10
89.8990310432
 20
109.3982021041
 30
0.0
  0
SPLINE
  5
298
100
AcDbEntity
  8
0
100
AcDbSpline
 62
7
  6
BYLAYER
 70
0
 71
3
 72
11
 73
7
 74
0
 42
0.0000001
 43
0.0000001
 44
0.0000000001
 40
0.0
 40
0.0
 40
0.0
 40
0.0
 40
0.237244423
 40
0.5000010922
 40
0.762757167
 40
1.0
 40
1.0
 40
1.0
 40
1.0
 10
55.7380815624
 20
109.0661292899
 30
0.0
 10
55.7380815621
 20
109.1691832008
 30
0.0
 10
55.6994181866
 20
109.3865117224
 30
0.0
 10
55.5647000976
 20
109.6918948107
 30
0.0
 10
55.3675888195
 20
109.9612541893
 30
0.0
 10
55.1987082155
 20
110.1034002509
 30
0.0
 10
55.1094610042
 20
110.154925987
 30
0.0
  0
SPLINE
  5
299
100
AcDbEntity
  8
0
100
AcDbSpline
 62
7
  6
BYLAYER
 70
0
 71
3
 72
11
 73
7
 74
0
 42
0.0000001
 43
0.0000001
 44
0.0000000001
 40
0.0
 40
0.0
 40
0.0
 40
0.0
 40
0.237242833
 40
0.4999989078
 40
0.762755577
 40
1.0
 40
1.0
 40
1.0
 40
1.0
 10
54.9532038971
 20
110.0647083248
 30
0.0
 10
55.0424511084
 20
110.0131825887
 30
0.0
 10
55.2113317125
 20
109.8710365271
 30
0.0
 10
55.4084429906
 20
109.6016771485
 30
0.0
 10
55.5431610795
 20
109.2962940602
 30
0.0
 10
55.5818244551
 20
109.0789655386
 30
0.0
 10
55.5818244553
 20
108.9759116277
 30
0.0
  0
SPLINE
  5
29A
100
AcDbEntity
  8
0
100
AcDbSpline
 62
7
  6
BYLAYER
 70
0
 71
3
 72
17
 73
13
 74
0
 42
0.0000001
 43
0.0000001
 44
0.0000000001
 40
0.0
 40
0.0
 40
0.0
 40
0.0
 40
0.1286928302
 40
0.2702775946
 40
0.4174343343
 40
0.5617794473
 40
0.6954505047
 40
0.8127129954
 40
0.8646788776
 40
0.9125110204
 40
0.9571404195
 40
1.0
 40
1.0
 40
1.0
 40
1.0
 10
35.5682089386
 20
147.1943826398
 30
0.0
 10
36.0100708942
 20
147.449490236
 30
0.0
 10
37.010482431
 20
147.8622724869
 30
0.0
 10
38.6409703433
 20
148.188421104
 30
0.0
 10
40.3654894368
 20
148.2362006712
 30
0.0
 10
42.0433269811
 20
148.0004491679
 30
0.0
 10
43.5384703991
 20
147.5010813985
 30
0.0
 10
44.5782248456
 20
146.8680276252
 30
0.0
 10
45.188587788
 20
146.2556883045
 30
0.0
 10
45.5126294634
 20
145.7787714504
 30
0.0
 10
45.7125189178
 20
145.2758642802
 30
0.0
 10
45.7578814433
 20
144.9275153022
 30
0.0
 10
45.7579113879
 20
144.7575935852
 30
0.0
  0
SPLINE
  5
29B
100
AcDbEntity
  8
0
100
AcDbSpline
 62
7
  6
BYLAYER
 70
0
 71
3
 72
17
 73
13
 74
0
 42
0.0000001
 43
0.0000001
 44
0.0000000001
 40
0.0
 40
0.0
 40
0.0
 40
0.0
 40
0.1286928302
 40
0.2702775946
 40
0.4174343343
 40
0.5617794473
 40
0.6954505047
 40
0.8127129954
 40
0.8646788776
 40
0.9125110204
 40
0.9571404195
 40
1.0
 40
1.0
 40
1.0
 40
1.0
 10
133.273395535
 20
147.1946174942
 30
0.0
 10
133.7152574906
 20
147.4497250904
 30
0.0
 10
134.7156690273
 20
147.8625073413
 30
0.0
 10
136.3461569397
 20
148.1886559584
 30
0.0
 10
138.0706760332
 20
148.2364355256
 30
0.0
 10
139.7485135775
 20
148.0006840223
 30
0.0
 10
141.2436569955
 20
147.5013162529
 30
0.0
 10
142.2834114419
 20
146.8682624795
 30
0.0
 10
142.8937743844
 20
146.2559231588
 30
0.0
 10
143.2178160598
 20
145.7790063047
 30
0.0
 10
143.4177055142
 20
145.2760991346
 30
0.0
 10
143.4630680397
 20
144.9277501566
 30
0.0
 10
143.4630979842
 20
144.7578284395
 30
0.0
  0
SPLINE
  5
29C
100
AcDbEntity
  8
0
100
AcDbSpline
 62
7
  6
BYLAYER
 70
0
 71
3
 72
11
 73
7
 74
0
 42
0.0000001
 43
0.0000001
 44
0.0000000001
 40
0.0
 40
0.0
 40
0.0
 40
0.0
 40
0.237244423
 40
0.5000010922
 40
0.762757167
 40
1.0
 40
1.0
 40
1.0
 40
1.0
 10
50.9839524642
 20
106.3213448415
 30
0.0
 10
50.983952464
 20
106.4243987524
 30
0.0
 10
50.9452890884
 20
106.6417272741
 30
0.0
 10
50.8105709995
 20
106.9471103623
 30
0.0
 10
50.6134597214
 20
107.216469741
 30
0.0
 10
50.4445791174
 20
107.3586158026
 30
0.0
 10
50.355331906
 20
107.4101415387
 30
0.0
  0
SPLINE
  5
29D
100
AcDbEntity
  8
0
100
AcDbSpline
 62
7
  6
BYLAYER
 70
0
 71
3
 72
11
 73
7
 74
0
 42
0.0000001
 43
0.0000001
 44
0.0000000001
 40
0.0
 40
0.0
 40
0.0
 40
0.0
 40
0.2897016594
 40
0.5490895814
 40
0.7822189142
 40
1.0
 40
1.0
 40
1.0
 40
1.0
 10
47.9073039079
 20
101.9525950182
 30
0.0
 10
47.9073039079
 20
101.7466804046
 30
0.0
 10
47.8760844432
 20
101.3550724409
 30
0.0
 10
47.7174962126
 20
100.8170196539
 30
0.0
 10
47.4504668469
 20
100.3804206233
 30
0.0
 10
47.1996445288
 20
100.169572123
 30
0.0
 10
47.0655939551
 20
100.0921649439
 30
0.0
  0
SPLINE
  5
29E
100
AcDbEntity
  8
0
100
AcDbSpline
 62
7
  6
BYLAYER
 70
0
 71
3
 72
9
 73
5
 74
0
 42
0.0000001
 43
0.0000001
 44
0.0000000001
 40
0.0
 40
0.0
 40
0.0
 40
0.0
 40
0.2436501239
 40
1.0
 40
1.0
 40
1.0
 40
1.0
 10
55.5539493825
 20
74.0247747727
 30
0.0
 10
55.5656806748
 20
74.0315477952
 30
0.0
 10
55.6119245445
 20
74.0626375885
 30
0.0
 10
55.648896582
 20
74.106609301
 30
0.0
 10
55.6702130146
 20
74.1428563706
 30
0.0
  0
SPLINE
  5
29F
100
AcDbEntity
  8
0
100
AcDbSpline
 62
7
  6
BYLAYER
 70
0
 71
3
 72
9
 73
5
 74
0
 42
0.0000001
 43
0.0000001
 44
0.0000000001
 40
0.0
 40
0.0
 40
0.0
 40
0.0
 40
0.2269674769
 40
1.0
 40
1.0
 40
1.0
 40
1.0
 10
55.6702130146
 20
74.1428563706
 30
0.0
 10
55.6816724853
 20
74.1623423812
 30
0.0
 10
55.7244727214
 20
74.2527483304
 30
0.0
 10
55.7380815622
 20
74.3547361508
 30
0.0
 10
55.7380815624
 20
74.4317297849
 30
0.0
  0
SPLINE
  5
2A0
100
AcDbEntity
  8
0
100
AcDbSpline
 62
7
  6
BYLAYER
 70
0
 71
3
 72
11
 73
7
 74
0
 42
0.0000001
 43
0.0000001
 44
0.0000000001
 40
0.0
 40
0.0
 40
0.0
 40
0.0
 40
0.2897016594
 40
0.5490895814
 40
0.7822189142
 40
1.0
 40
1.0
 40
1.0
 40
1.0
 10
47.9073039079
 20
79.9690839394
 30
0.0
 10
47.9073039079
 20
79.7631693258
 30
0.0
 10
47.8760844432
 20
79.3715613621
 30
0.0
 10
47.7174962126
 20
78.8335085751
 30
0.0
 10
47.4504668469
 20
78.3969095445
 30
0.0
 10
47.1996445288
 20
78.1860610442
 30
0.0
 10
47.0655939551
 20
78.1086538651
 30
0.0
  0
SPLINE
  5
2A1
100
AcDbEntity
  8
0
100
AcDbSpline
 62
7
  6
BYLAYER
 70
0
 71
3
 72
11
 73
7
 74
0
 42
0.0000001
 43
0.0000001
 44
0.0000000001
 40
0.0
 40
0.0
 40
0.0
 40
0.0
 40
0.2897016594
 40
0.5490895814
 40
0.7822189142
 40
1.0
 40
1.0
 40
1.0
 40
1.0
 10
28.8690816681
 20
112.9440690929
 30
0.0
 10
28.8690816681
 20
112.7381544793
 30
0.0
 10
28.8378622034
 20
112.3465465156
 30
0.0
 10
28.6792739727
 20
111.8084937286
 30
0.0
 10
28.412244607
 20
111.371894698
 30
0.0
 10
28.1614222889
 20
111.1610461977
 30
0.0
 10
28.0273717153
 20
111.0836390186
 30
0.0
  0
SPLINE
  5
2A2
100
AcDbEntity
  8
0
100
AcDbSpline
 62
7
  6
BYLAYER
 70
0
 71
3
 72
18
 73
14
 74
0
 42
0.0000001
 43
0.0000001
 44
0.0000000001
 40
0.0
 40
0.0
 40
0.0
 40
0.0
 40
0.0428624502
 40
0.0872794699
 40
0.1347759463
 40
0.186366543
 40
0.2425333054
 40
0.3032891797
 40
0.436718883
 40
0.5812176428
 40
0.7287982102
 40
0.8708928841
 40
1.0
 40
1.0
 40
1.0
 40
1.0
 10
75.3189377585
 20
77.1861371819
 30
0.0
 10
75.0978863998
 20
77.0470430159
 30
0.0
 10
74.6084657471
 20
76.8217046656
 30
0.0
 10
73.7926711601
 20
76.6754039799
 30
0.0
 10
72.9128538076
 20
76.717515844
 30
0.0
 10
71.9892174262
 20
76.9432026161
 30
0.0
 10
71.0402732163
 20
77.3451916223
 30
0.0
 10
69.7264173626
 20
78.1277301962
 30
0.0
 10
68.1574722447
 20
79.4945514108
 30
0.0
 10
66.5426739652
 20
81.5384399387
 30
0.0
 10
65.2684003131
 20
83.8719348193
 30
0.0
 10
64.440694792
 20
86.2985209854
 30
0.0
 10
64.2184727248
 20
87.952923083
 30
0.0
 10
64.2184727248
 20
88.7396065899
 30
0.0
  0
SPLINE
  5
2A3
100
AcDbEntity
  8
0
100
AcDbSpline
 62
7
  6
BYLAYER
 70
0
 71
3
 72
11
 73
7
 74
0
 42
0.0000001
 43
0.0000001
 44
0.0000000001
 40
0.0
 40
0.0
 40
0.0
 40
0.0
 40
0.2897016594
 40
0.5490895814
 40
0.7822189142
 40
1.0
 40
1.0
 40
1.0
 40
1.0
 10
28.8690816681
 20
90.9605580141
 30
0.0
 10
28.8690816681
 20
90.7546434005
 30
0.0
 10
28.8378622034
 20
90.3630354368
 30
0.0
 10
28.6792739727
 20
89.8249826498
 30
0.0
 10
28.412244607
 20
89.3883836192
 30
0.0
 10
28.1614222889
 20
89.1775351189
 30
0.0
 10
28.0273717153
 20
89.1001279398
 30
0.0
  0
SPLINE
  5
2A4
100
AcDbEntity
  8
0
100
AcDbSpline
 62
7
  6
BYLAYER
 70
0
 71
3
 72
12
 73
8
 74
0
 42
0.0000001
 43
0.0000001
 44
0.0000000001
 40
0.0
 40
0.0
 40
0.0
 40
0.0
 40
0.1084106206
 40
0.2185283675
 40
0.450908582
 40
0.7097630849
 40
1.0
 40
1.0
 40
1.0
 40
1.0
 10
74.9282884826
 20
97.568677418
 30
0.0
 10
74.7781279291
 20
97.4894455377
 30
0.0
 10
74.4888158781
 20
97.3027178674
 30
0.0
 10
73.9685947699
 20
96.8206792261
 30
0.0
 10
73.4512206401
 20
96.0141924252
 30
0.0
 10
73.0919127424
 20
94.8327027462
 30
0.0
 10
73.0212987789
 20
93.9695115365
 30
0.0
 10
73.0212987789
 20
93.514971517
 30
0.0
  0
SPLINE
  5
2A5
100
AcDbEntity
  8
0
100
AcDbSpline
 62
7
  6
BYLAYER
 70
0
 71
3
 72
11
 73
7
 74
0
 42
0.0000001
 43
0.0000001
 44
0.0000000001
 40
0.0
 40
0.0
 40
0.0
 40
0.0
 40
0.2177434118
 40
0.4508805376
 40
0.7104578122
 40
1.0
 40
1.0
 40
1.0
 40
1.0
 10
26.5163170455
 20
144.9649531136
 30
0.0
 10
26.5163170666
 20
144.8972451424
 30
0.0
 10
26.5411809699
 20
144.7560803563
 30
0.0
 10
26.6482663717
 20
144.5593615396
 30
0.0
 10
26.8175209726
 20
144.3816744383
 30
0.0
 10
26.9590147592
 20
144.2841112458
 30
0.0
 10
27.0369869464
 20
144.2390950008
 30
0.0
  0
SPLINE
  5
2A6
100
AcDbEntity
  8
0
100
AcDbSpline
 62
7
  6
BYLAYER
 70
0
 71
3
 72
17
 73
13
 74
0
 42
0.0000001
 43
0.0000001
 44
0.0000000001
 40
0.0
 40
0.0
 40
0.0
 40
0.0
 40
0.1286930371
 40
0.2702795962
 40
0.4174375935
 40
0.5617786795
 40
0.6954478243
 40
0.81271112
 40
0.8646738576
 40
0.9125098523
 40
0.9571380034
 40
1.0
 40
1.0
 40
1.0
 40
1.0
 10
44.4588999146
 20
99.9616699286
 30
0.0
 10
44.4588999146
 20
100.3090516482
 30
0.0
 10
44.361729708
 20
101.0394540259
 30
0.0
 10
43.9989788684
 20
102.1118825087
 30
0.0
 10
43.4400715659
 20
103.1449711842
 30
0.0
 10
42.7298654278
 20
104.0539989229
 30
0.0
 10
41.9264410442
 20
104.7655370745
 30
0.0
 10
41.1992477536
 20
105.1632039432
 30
0.0
 10
40.6303842452
 20
105.3144932347
 30
0.0
 10
40.2388674218
 20
105.343367742
 30
0.0
 10
39.8743119294
 20
105.2898451306
 30
0.0
 10
39.6534137719
 20
105.1981389058
 30
0.0
 10
39.5532244695
 20
105.1402766926
 30
0.0
  0
SPLINE
  5
2A7
100
AcDbEntity
  8
0
100
AcDbSpline
 62
7
  6
BYLAYER
 70
0
 71
3
 72
11
 73
7
 74
0
 42
0.0000001
 43
0.0000001
 44
0.0000000001
 40
0.0
 40
0.0
 40
0.0
 40
0.0
 40
0.2177839466
 40
0.4509170841
 40
0.710307871
 40
1.0
 40
1.0
 40
1.0
 40
1.0
 10
24.5789652739
 20
109.0927180921
 30
0.0
 10
24.7130127753
 20
109.1701343923
 30
0.0
 10
24.9638498405
 20
109.3809691719
 30
0.0
 10
25.2308721348
 20
109.8175847045
 30
0.0
 10
25.3894590793
 20
110.3556329222
 30
0.0
 10
25.4206776747
 20
110.74723634
 30
0.0
 10
25.4206776747
 20
110.9531440033
 30
0.0
  0
SPLINE
  5
2A8
100
AcDbEntity
  8
0
100
AcDbSpline
 62
7
  6
BYLAYER
 70
0
 71
3
 72
17
 73
13
 74
0
 42
0.0000001
 43
0.0000001
 44
0.0000000001
 40
0.0
 40
0.0
 40
0.0
 40
0.0
 40
0.1286930371
 40
0.2702795962
 40
0.4174375935
 40
0.5617786795
 40
0.6954478243
 40
0.81271112
 40
0.8646738576
 40
0.9125098523
 40
0.9571380034
 40
1.0
 40
1.0
 40
1.0
 40
1.0
 10
44.4588999146
 20
77.9781588498
 30
0.0
 10
44.4588999146
 20
78.3255405694
 30
0.0
 10
44.361729708
 20
79.0559429471
 30
0.0
 10
43.9989788684
 20
80.1283714299
 30
0.0
 10
43.4400715659
 20
81.1614601054
 30
0.0
 10
42.7298654278
 20
82.0704878441
 30
0.0
 10
41.9264410442
 20
82.7820259957
 30
0.0
 10
41.1992477536
 20
83.1796928644
 30
0.0
 10
40.6303842452
 20
83.3309821559
 30
0.0
 10
40.2388674218
 20
83.3598566632
 30
0.0
 10
39.8743119294
 20
83.3063340518
 30
0.0
 10
39.6534137719
 20
83.214627827
 30
0.0
 10
39.5532244695
 20
83.1567656138
 30
0.0
  0
SPLINE
  5
2A9
100
AcDbEntity
  8
0
100
AcDbSpline
 62
7
  6
BYLAYER
 70
0
 71
3
 72
17
 73
13
 74
0
 42
0.0000001
 43
0.0000001
 44
0.0000000001
 40
0.0
 40
0.0
 40
0.0
 40
0.0
 40
0.1286930371
 40
0.2702795962
 40
0.4174375935
 40
0.5617786795
 40
0.6954478243
 40
0.81271112
 40
0.8646738576
 40
0.9125098523
 40
0.9571380034
 40
1.0
 40
1.0
 40
1.0
 40
1.0
 10
25.4206776747
 20
110.9531440033
 30
0.0
 10
25.4206776747
 20
111.3005257229
 30
0.0
 10
25.3235074682
 20
112.0309281006
 30
0.0
 10
24.9607566286
 20
113.1033565834
 30
0.0
 10
24.401849326
 20
114.1364452589
 30
0.0
 10
23.6916431879
 20
115.0454729976
 30
0.0
 10
22.8882188043
 20
115.7570111492
 30
0.0
 10
22.1610255137
 20
116.1546780179
 30
0.0
 10
21.5921620054
 20
116.3059673094
 30
0.0
 10
21.2006451819
 20
116.3348418167
 30
0.0
 10
20.8360896895
 20
116.2813192053
 30
0.0
 10
20.615191532
 20
116.1896129805
 30
0.0
 10
20.5150022296
 20
116.1317507673
 30
0.0
  0
SPLINE
  5
2AA
100
AcDbEntity
  8
0
100
AcDbSpline
 62
7
  6
BYLAYER
 70
0
 71
3
 72
9
 73
5
 74
0
 42
0.0000001
 43
0.0000001
 44
0.0000000001
 40
0.0
 40
0.0
 40
0.0
 40
0.0
 40
0.475586852
 40
1.0
 40
1.0
 40
1.0
 40
1.0
 10
25.4206776747
 20
88.9696329245
 30
0.0
 10
25.4206776747
 20
89.3404520909
 30
0.0
 10
25.3102215575
 20
90.1208299158
 30
0.0
 10
25.0456479044
 20
90.8593341543
 30
0.0
 10
24.874645046
 20
91.2307484846
 30
0.0
  0
SPLINE
  5
2AB
100
AcDbEntity
  8
0
100
AcDbSpline
 62
7
  6
BYLAYER
 70
0
 71
3
 72
14
 73
10
 74
0
 42
0.0000001
 43
0.0000001
 44
0.0000000001
 40
0.0
 40
0.0
 40
0.0
 40
0.0
 40
0.3026322074
 40
0.4477851488
 40
0.5831060979
 40
0.7057150815
 40
0.8145126066
 40
0.9110061926
 40
1.0
 40
1.0
 40
1.0
 40
1.0
 10
24.874645046
 20
91.2307484846
 30
0.0
 10
24.6318537419
 20
91.7580856907
 30
0.0
 10
24.173436128
 20
92.4987959088
 30
0.0
 10
23.4113376909
 20
93.3209415112
 30
0.0
 10
22.8071175532
 20
93.8086968194
 30
0.0
 10
22.18923886
 20
94.1535289249
 30
0.0
 10
21.5818143235
 20
94.33906397
 30
0.0
 10
21.008641181
 20
94.3517786286
 30
0.0
 10
20.6628372582
 20
94.2336186834
 30
0.0
 10
20.5150022296
 20
94.1482396885
 30
0.0
  0
SPLINE
  5
2AC
100
AcDbEntity
  8
0
100
AcDbSpline
 62
7
  6
BYLAYER
 70
0
 71
3
 72
11
 73
7
 74
0
 42
0.0000001
 43
0.0000001
 44
0.0000000001
 40
0.0
 40
0.0
 40
0.0
 40
0.0
 40
0.237242833
 40
0.4999989078
 40
0.762755577
 40
1.0
 40
1.0
 40
1.0
 40
1.0
 10
64.3052049864
 20
115.4640595593
 30
0.0
 10
64.3944521977
 20
115.4125338232
 30
0.0
 10
64.5633328017
 20
115.2703877616
 30
0.0
 10
64.7604440798
 20
115.0010283829
 30
0.0
 10
64.8951621688
 20
114.6956452947
 30
0.0
 10
64.9338255443
 20
114.4783167731
 30
0.0
 10
64.9338255446
 20
114.3752628621
 30
0.0
  0
SPLINE
  5
2AD
100
AcDbEntity
  8
0
100
AcDbSpline
 62
7
  6
BYLAYER
 70
0
 71
3
 72
11
 73
7
 74
0
 42
0.0000001
 43
0.0000001
 44
0.0000000001
 40
0.0
 40
0.0
 40
0.0
 40
0.0
 40
0.217779605
 40
0.4509236448
 40
0.7102593092
 40
1.0
 40
1.0
 40
1.0
 40
1.0
 10
33.8199823882
 20
144.7575935671
 30
0.0
 10
33.8199423241
 20
144.9849389487
 30
0.0
 10
33.9040170588
 20
145.4588207755
 30
0.0
 10
34.2632095511
 20
146.119029379
 30
0.0
 10
34.8310613256
 20
146.7159264168
 30
0.0
 10
35.3062641828
 20
147.0431496673
 30
0.0
 10
35.5682089386
 20
147.1943826398
 30
0.0
  0
SPLINE
  5
2AE
100
AcDbEntity
  8
0
100
AcDbSpline
 62
7
  6
BYLAYER
 70
0
 71
3
 72
17
 73
13
 74
0
 42
0.0000001
 43
0.0000001
 44
0.0000000001
 40
0.0
 40
0.0
 40
0.0
 40
0.0
 40
0.0428592926
 40
0.087485474
 40
0.1353198781
 40
0.1872819044
 40
0.3045421965
 40
0.4382074305
 40
0.582548911
 40
0.7297129633
 40
0.8713059682
 40
1.0
 40
1.0
 40
1.0
 40
1.0
 10
43.0016260147
 20
85.1476948665
 30
0.0
 10
43.1018125338
 20
85.2055473293
 30
0.0
 10
43.3226916358
 20
85.2972641388
 30
0.0
 10
43.6872329778
 20
85.3507717267
 30
0.0
 10
44.0787391204
 20
85.3219264978
 30
0.0
 10
44.6475883493
 20
85.1706313384
 30
0.0
 10
45.3747738357
 20
84.7730018951
 30
0.0
 10
46.1781982531
 20
84.0614863585
 30
0.0
 10
46.8884231615
 20
83.1524654119
 30
0.0
 10
47.4473614162
 20
82.1193527185
 30
0.0
 10
47.8101292068
 20
81.0468907425
 30
0.0
 10
47.9073039079
 20
80.3164683811
 30
0.0
 10
47.9073039079
 20
79.9690839394
 30
0.0
  0
SPLINE
  5
2AF
100
AcDbEntity
  8
0
100
AcDbSpline
 62
7
  6
BYLAYER
 70
0
 71
3
 72
11
 73
7
 74
0
 42
0.0000001
 43
0.0000001
 44
0.0000000001
 40
0.0
 40
0.0
 40
0.0
 40
0.0
 40
0.2177839466
 40
0.4509170841
 40
0.710307871
 40
1.0
 40
1.0
 40
1.0
 40
1.0
 10
43.6171875138
 20
76.1177329386
 30
0.0
 10
43.7512350152
 20
76.1951492388
 30
0.0
 10
44.0020720804
 20
76.4059840184
 30
0.0
 10
44.2690943746
 20
76.842599551
 30
0.0
 10
44.4276813192
 20
77.3806477687
 30
0.0
 10
44.4588999146
 20
77.7722511865
 30
0.0
 10
44.4588999146
 20
77.9781588498
 30
0.0
  0
SPLINE
  5
2B0
100
AcDbEntity
  8
0
100
AcDbSpline
 62
7
  6
BYLAYER
 70
0
 71
3
 72
11
 73
7
 74
0
 42
0.0000001
 43
0.0000001
 44
0.0000000001
 40
0.0
 40
0.0
 40
0.0
 40
0.0
 40
0.2177450729
 40
0.4508830112
 40
0.7104597666
 40
1.0
 40
1.0
 40
1.0
 40
1.0
 10
78.9474680923
 20
60.5237973746
 30
0.0
 10
79.00610679
 20
60.5576522685
 30
0.0
 10
79.1159307653
 20
60.6497692794
 30
0.0
 10
79.2327567639
 20
60.8408708872
 30
0.0
 10
79.3020154305
 20
61.076297286
 30
0.0
 10
79.3157629078
 20
61.2476191476
 30
0.0
 10
79.3157629079
 20
61.3376546331
 30
0.0
  0
SPLINE
  5
2B1
100
AcDbEntity
  8
0
100
AcDbSpline
 62
7
  6
BYLAYER
 70
0
 71
3
 72
17
 73
13
 74
0
 42
0.0000001
 43
0.0000001
 44
0.0000000001
 40
0.0
 40
0.0
 40
0.0
 40
0.0
 40
0.0428592926
 40
0.087485474
 40
0.1353198781
 40
0.1872819044
 40
0.3045421965
 40
0.4382074305
 40
0.582548911
 40
0.7297129633
 40
0.8713059682
 40
1.0
 40
1.0
 40
1.0
 40
1.0
 10
23.9634037749
 20
96.1391689412
 30
0.0
 10
24.0635902939
 20
96.197021404
 30
0.0
 10
24.284469396
 20
96.2887382135
 30
0.0
 10
24.6490107379
 20
96.3422458014
 30
0.0
 10
25.0405168806
 20
96.3134005725
 30
0.0
 10
25.6093661094
 20
96.1621054132
 30
0.0
 10
26.3365515958
 20
95.7644759698
 30
0.0
 10
27.1399760133
 20
95.0529604332
 30
0.0
 10
27.8502009217
 20
94.1439394866
 30
0.0
 10
28.4091391764
 20
93.1108267932
 30
0.0
 10
28.7719069669
 20
92.0383648172
 30
0.0
 10
28.8690816681
 20
91.3079424558
 30
0.0
 10
28.8690816681
 20
90.9605580141
 30
0.0
  0
SPLINE
  5
2B2
100
AcDbEntity
  8
0
100
AcDbSpline
 62
7
  6
BYLAYER
 70
0
 71
3
 72
23
 73
19
 74
0
 42
0.0000001
 43
0.0000001
 44
0.0000000001
 40
0.0
 40
0.0
 40
0.0
 40
0.0
 40
0.060377504
 40
0.1143957167
 40
0.162977115
 40
0.2083494954
 40
0.2537218414
 40
0.3023046909
 40
0.3563188005
 40
0.4166971809
 40
0.483282319
 40
0.5551271003
 40
0.6307512923
 40
0.7083434348
 40
0.7859367779
 40
0.8615618905
 40
0.9334142109
 40
1.0
 40
1.0
 40
1.0
 40
1.0
 10
77.1073138028
 20
80.0753128255
 30
0.0
 10
77.1073138028
 20
79.5374748851
 30
0.0
 10
77.0259864523
 20
78.5148940294
 30
0.0
 10
76.6117746947
 20
77.1102397027
 30
0.0
 10
75.9139673262
 20
75.9696841428
 30
0.0
 10
74.9455721064
 20
75.1550762712
 30
0.0
 10
73.7558790287
 20
74.7236888202
 30
0.0
 10
72.419319551
 20
74.6896544545
 30
0.0
 10
70.995442509
 20
75.0333666717
 30
0.0
 10
69.5314451583
 20
75.7300190124
 30
0.0
 10
68.0757401901
 20
76.7505568675
 30
0.0
 10
66.6792543844
 20
78.0568948284
 30
0.0
 10
65.3928393283
 20
79.600715076
 30
0.0
 10
64.2642022548
 20
81.3245250958
 30
0.0
 10
63.3356350283
 20
83.1638013265
 30
0.0
 10
62.64173236
 20
85.0499781462
 30
0.0
 10
62.2086565734
 20
86.912116891
 30
0.0
 10
62.0999861075
 20
88.1464606533
 30
0.0
 10
62.0999861075
 20
88.7396014977
 30
0.0
  0
SPLINE
  5
2B3
100
AcDbEntity
  8
0
100
AcDbSpline
 62
7
  6
BYLAYER
 70
0
 71
3
 72
15
 73
11
 74
0
 42
0.0000001
 43
0.0000001
 44
0.0000000001
 40
0.0
 40
0.0
 40
0.0
 40
0.0
 40
0.1448946457
 40
0.2745278966
 40
0.3911137064
 40
0.4999987149
 40
0.6088842689
 40
0.7254752291
 40
0.8551008823
 40
1.0
 40
1.0
 40
1.0
 40
1.0
 10
62.0999861075
 20
88.7396014977
 30
0.0
 10
62.0999861075
 20
89.27744917
 30
0.0
 10
62.1813161636
 20
90.3000476689
 30
0.0
 10
62.595543939
 20
91.704722722
 30
0.0
 10
63.2933768778
 20
92.8452885375
 30
0.0
 10
64.2618134755
 20
93.6598867264
 30
0.0
 10
65.4515302623
 20
94.0912587876
 30
0.0
 10
66.7881990003
 20
94.1252089213
 30
0.0
 10
68.2118050862
 20
93.781631539
 30
0.0
 10
69.1380408125
 20
93.340729293
 30
0.0
 10
69.6038420894
 20
93.071792226
 30
0.0
  0
SPLINE
  5
2B4
100
AcDbEntity
  8
0
100
AcDbSpline
 62
7
  6
BYLAYER
 70
0
 71
3
 72
17
 73
13
 74
0
 42
0.0000001
 43
0.0000001
 44
0.0000000001
 40
0.0
 40
0.0
 40
0.0
 40
0.0
 40
0.0428592926
 40
0.087485474
 40
0.1353198781
 40
0.1872819044
 40
0.3045421965
 40
0.4382074305
 40
0.582548911
 40
0.7297129633
 40
0.8713059682
 40
1.0
 40
1.0
 40
1.0
 40
1.0
 10
43.0016260147
 20
107.1312059453
 30
0.0
 10
43.1018125338
 20
107.1890584081
 30
0.0
 10
43.3226916358
 20
107.2807752176
 30
0.0
 10
43.6872329778
 20
107.3342828055
 30
0.0
 10
44.0787391204
 20
107.3054375766
 30
0.0
 10
44.6475883493
 20
107.1541424172
 30
0.0
 10
45.3747738357
 20
106.7565129739
 30
0.0
 10
46.1781982531
 20
106.0449974373
 30
0.0
 10
46.8884231615
 20
105.1359764907
 30
0.0
 10
47.4473614162
 20
104.1028637973
 30
0.0
 10
47.8101292068
 20
103.0304018213
 30
0.0
 10
47.9073039079
 20
102.2999794599
 30
0.0
 10
47.9073039079
 20
101.9525950182
 30
0.0
  0
SPLINE
  5
2B5
100
AcDbEntity
  8
0
100
AcDbSpline
 62
7
  6
BYLAYER
 70
0
 71
3
 72
11
 73
7
 74
0
 42
0.0000001
 43
0.0000001
 44
0.0000000001
 40
0.0
 40
0.0
 40
0.0
 40
0.0
 40
0.2177839466
 40
0.4509170841
 40
0.710307871
 40
1.0
 40
1.0
 40
1.0
 40
1.0
 10
24.5789652739
 20
87.1092070133
 30
0.0
 10
24.7130127753
 20
87.1866233135
 30
0.0
 10
24.9638498405
 20
87.3974580931
 30
0.0
 10
25.2308721348
 20
87.8340736257
 30
0.0
 10
25.3894590793
 20
88.3721218434
 30
0.0
 10
25.4206776747
 20
88.7637252612
 30
0.0
 10
25.4206776747
 20
88.9696329245
 30
0.0
  0
SPLINE
  5
2B6
100
AcDbEntity
  8
0
100
AcDbSpline
 62
7
  6
BYLAYER
 70
0
 71
3
 72
11
 73
7
 74
0
 42
0.0000001
 43
0.0000001
 44
0.0000000001
 40
0.0
 40
0.0
 40
0.0
 40
0.0
 40
0.2177839466
 40
0.4509170841
 40
0.710307871
 40
1.0
 40
1.0
 40
1.0
 40
1.0
 10
43.6171875138
 20
98.1012440174
 30
0.0
 10
43.7512350152
 20
98.1786603176
 30
0.0
 10
44.0020720804
 20
98.3894950972
 30
0.0
 10
44.2690943746
 20
98.8261106298
 30
0.0
 10
44.4276813192
 20
99.3641588475
 30
0.0
 10
44.4588999146
 20
99.7557622653
 30
0.0
 10
44.4588999146
 20
99.9616699286
 30
0.0
  0
SPLINE
  5
2B7
100
AcDbEntity
  8
0
100
AcDbSpline
 62
7
  6
BYLAYER
 70
0
 71
3
 72
11
 73
7
 74
0
 42
0.0000001
 43
0.0000001
 44
0.0000000001
 40
0.0
 40
0.0
 40
0.0
 40
0.0
 40
0.217779605
 40
0.4509236448
 40
0.7102593092
 40
1.0
 40
1.0
 40
1.0
 40
1.0
 10
131.5251689846
 20
144.7578284214
 30
0.0
 10
131.5251289205
 20
144.9851738031
 30
0.0
 10
131.6092036552
 20
145.4590556299
 30
0.0
 10
131.9683961475
 20
146.1192642334
 30
0.0
 10
132.536247922
 20
146.7161612712
 30
0.0
 10
133.0114507792
 20
147.0433845217
 30
0.0
 10
133.273395535
 20
147.1946174942
 30
0.0
  0
SPLINE
  5
2B8
100
AcDbEntity
  8
0
100
AcDbSpline
 62
7
  6
BYLAYER
 70
0
 71
3
 72
12
 73
8
 74
0
 42
0.0000001
 43
0.0000001
 44
0.0000000001
 40
0.0
 40
0.0
 40
0.0
 40
0.0
 40
0.2902375425
 40
0.5490874833
 40
0.7814672338
 40
0.8915859377
 40
1.0
 40
1.0
 40
1.0
 40
1.0
 10
64.2184727248
 20
88.7396065899
 30
0.0
 10
64.2184727248
 20
89.2137029606
 30
0.0
 10
64.2921190262
 20
90.1140257972
 30
0.0
 10
64.6668863616
 20
91.3463340495
 30
0.0
 10
65.2064904674
 20
92.1875304876
 30
0.0
 10
65.749106239
 20
92.6903032022
 30
0.0
 10
66.0508680102
 20
92.8850717771
 30
0.0
 10
66.2074923422
 20
92.9677177348
 30
0.0
  0
ENDSEC
  0
SECTION
  2
OBJECTS
  0
DICTIONARY
  5
C
100
AcDbDictionary
280
0
281
1
  3
ACAD_GROUP
350
D
  3
ACAD_MLINESTYLE
350
17
  3
ACAD_LAYOUT
350
1A
  3
ACAD_PLOTSETTINGS
350
19
  3
ACAD_PLOTSTYLENAME
350
E
  0
DICTIONARY
  5
D
102
{ACAD_REACTORS
330
C
102
}
100
AcDbDictionary
280
0
281
1
  0
ACDBDICTIONARYWDFLT
  5
E
102
{ACAD_REACTORS
330
C
102
}
100
AcDbDictionary
281
1
  3
Normal
350
F
100
AcDbDictionaryWithDefault
340
F
  0
DICTIONARY
  5
17
102
{ACAD_REACTORS
330
C
102
}
100
AcDbDictionary
280
0
281
1
  3
Standard
350
18
  0
DICTIONARY
  5
19
102
{ACAD_REACTORS
330
C
102
}
100
AcDbDictionary
281
1
  0
DICTIONARY
  5
1A
102
{ACAD_REACTORS
330
C
102
}
100
AcDbDictionary
281
1
  3
Model
350
2B9
  3
Layout1
350
2BA
  0
ACDBPLACEHOLDER
  5
F
102
{ACAD_REACTORS
330
E
102
}
  0
MLINESTYLE
  5
18
102
{ACAD_REACTORS
330
17
102
}
100
AcDbMlineStyle
  2
STANDARD
 70
0
  3

 62
256
 51
90.0
 52
90.0
 71
2
 49
0.5
 62
256
  6
BYLAYER
 49
-0.5
 62
256
  6
BYLAYER
  0
LAYOUT
  5
2B9
102
{ACAD_REACTORS
330
1A
102
}
100
AcDbPlotSettings
  1

  2
none_device
  4

  6

 40
0.0
 41
0.0
 42
0.0
 43
0.0
 44
210.0
 45
297.0
 46
0.0
 47
0.0
 48
0.0
 49
0.0
140
0.0
141
0.0
142
1.0
143
1.0
 70
1024
 72
1
 73
0
 74
0
  7

 75
0
147
1.0
148
0.0
149
0.0
100
AcDbLayout
  1
Model
 70
0
 71
0
 10
0.0
 20
0.0
 11
210.0
 21
297.0
 12
0.0
 22
0.0
 32
0.0
 14
0.0
 24
0.0
 34
0.0
 15
0.0
 25
0.0
 35
0.0
146
0.0
 13
0.0
 23
0.0
 33
0.0
 16
1.0
 26
0.0
 36
0.0
 17
0.0
 27
1.0
 37
0.0
 76
0
330
210
345
0
346
0
  0
LAYOUT
  5
2BA
102
{ACAD_REACTORS
330
1A
102
}
100
AcDbPlotSettings
  1

  2
none_device
  4

  6

 40
0.0
 41
0.0
 42
0.0
 43
0.0
 44
210.0
 45
297.0
 46
0.0
 47
0.0
 48
0.0
 49
0.0
140
0.0
141
0.0
142
1.0
143
1.0
 70
0
 72
1
 73
0
 74
0
  7

 75
0
147
1.0
148
0.0
149
0.0
100
AcDbLayout
  1
Layout1
 70
0
 71
1
 10
0.0
 20
0.0
 11
210.0
 21
297.0
 12
0.0
 22
0.0
 32
0.0
 14
0.0
 24
0.0
 34
0.0
 15
0.0
 25
0.0
 35
0.0
146
0.0
 13
0.0
 23
0.0
 33
0.0
 16
1.0
 26
0.0
 36
0.0
 17
0.0
 27
1.0
 37
0.0
 76
0
330
211
345
0
346
0
  0
ENDSEC
  0
EOF
